Any English Song Tabs- Get it here

Discussion in 'English Guitar Tabs - Submit or Request' started by 123_guitar, Jan 15, 2010.

  1. 123_guitar

    123_guitar New Member

    hi guys, this is my new thread.

    post ur requests of any english song, theme etc

    i will try to post it here;)
     
  2. racx

    racx New Member

    hey dude can u give me the chords n tabs for 'who says' a new song by john mayer
     
  3. 123_guitar

    123_guitar New Member

    "Who says" by John Mayer Chords

    Hi dude, that is one of my favourites, i already have its chords in my tab book. posting here. enjoy and keep requesting.........

    Song: Who says
    Artist: John Mayer
    Capo: First Fret
    Tuning: Standard (EADGBe)
    Level: Easy

    With Capo on 1st fret (u can also play without capo)

    D G
    Who says I can’t get stoned?
    Em A
    Turn off the lights and the telephone
    Bm E
    Me and my house alone
    G A D
    Who says I can’t get stoned?

    D G
    Who says I can’t be free?
    Em A
    From all of the things that I used to be
    Bm E
    Re-write my history
    G A D
    Who says I can’t be free?

    G D A
    It’s been a long night in New York City
    G D A
    It’s been a long night in Baton Rouge
    G D F# Bm
    I don’t remember you looking any better
    E A
    But then again I don’t remember you:rock:

    ---------------------------------------
    CHORDS USED:

    D chord: xx0232
    G chord: 320033
    Em chord: 022000
    A chord: x02220
    Bm chord: x24432
    E chord: 022100
    F# chord: 133211
     
  4. 123_guitar

    123_guitar New Member

    "21 Guns" by Green Day

    Chords of 21 guns by green day

    Song: 21 guns
    artist: Green day
    Tuning: Standard (EADGBe)
    Year: 2009
    Level: Intermidiate

    Instruments used here are Acoustic Lead and Chorus, Solo, Outro electric guitar

    Intro: Dm - A# - F - C (x2)

    Verse:
    Dm A# F C
    Do you know what's worth fighting for,
    Dm A# F C
    When it's not worth dying for?
    Dm A# F C
    Does it take your breath away
    A# C
    And you feel yourself suffocating?
    Dm A# F C
    Does the pain weigh out the pride?
    Dm A# F C
    And you look for a place to hide?
    Dm A# F C
    Did someone break your heart inside?
    A# C5
    You're in ruins

    Chorus:
    F5 C5* D5
    One, 21 guns
    C5 A#5
    Lay down your arms
    F5 C5
    Give up the fight
    F5 C5* D5
    One, 21 guns
    C5 A#5 F5 C5
    Throw up your arms into the sky,
    A#5 F5 C5
    You and I

    Verse:
    Dm A# F C
    When you're at the end of the road
    Dm A# F C
    And you lost all sense of control
    Dm A# F C
    And your thoughts have taken their toll
    A# C
    When your mind breaks the spirit of your soul
    Dm A# F C
    Your faith walks on broken glass
    Dm A# F C
    And the hangover doesn't pass
    Dm A# F C
    Nothing's ever built to last
    A# C5
    You're in ruins.

    Chorus:
    F5 C5* D5
    One, 21 guns
    C5 A#5
    Lay down your arms
    F5 C5
    Give up the fight
    F5 C5* D5
    One, 21 guns
    C5 A#5 F5 C5
    Throw up your arms into the sky,
    A#5 F5 C5
    You and I

    Bridge:
    Dm A# F C
    Did you try to live on your own
    Dm A# F A
    When you burned down the house and home?
    Dm A# F A
    Did you stand too close to the fire?
    A#m C
    Like a liar looking for forgiveness from a stone

    Solo (Guitar 1, Acoustic)
    F5 - C5* - D5 - C5 - A#5 - F5 - C5 (x2)

    A#5 - F5 - E5

    Break:
    Dm - A# - F - C (x2)

    Verse:
    Dm A# F C
    When it's time to live and let die
    Dm A# F C
    And you can't get another try
    Dm A# F C
    Something inside this heart has died
    A# C5
    You're in ruins.

    Chorus:
    F5 C5* D5
    One, 21 guns
    C5 A#5
    Lay down your arms
    F5 C5
    Give up the fight
    F5 C5* D5
    One, 21 guns
    C5 A#5 F5 C5
    Throw up your arms into the sky
    F5 C5* D5
    One, 21 guns
    C5 A#5
    Lay down your arms
    F5 C5
    Give up the fight
    F5 C5* D5
    One, 21 guns
    C5 A#5 F5 C5
    Throw up your arms into the sky,
    A#5 F5 C5
    You and I

    ------------------------
    Chords Used:

    Dm- xx0231
    A#- x13331
    F- 1332111 (Billie joe plays another version of F- xx3210)
    C- x32010
    F5- 133xxx
    C5*- 032xxx
    D5- x577xx
    C5- x355xx
    A#5- x133xx
    A- 577xxx or open A- x02220
     
  5. jeit

    jeit New Member

    Can u give me the intro music of "carnival of rust" by poets of the fall?In tab format?thanks in advance.
     
  6. 123_guitar

    123_guitar New Member

    Tabs of Carnival of rust song

    Hi, i have found this on net, hope it accurate;)

    Song:Carnival of Rust
    Tuning: EADGBe (Standard)
    Artist: poet of the Fall
    Capo: 1st fret

    By putting Capo on 1st Fret:

    Intro/verse:

    e|--------3-----3s4---------3-----3s4---------3-----3s4--------------3---3---|
    h|-----6----6------6-----6----6------6-----6----6------6------6--------6-----|
    g|---5--5-----5--------5--5-----5--------5--5-----5---------5--5---5-------5-|
    d|-3-----------------6-------------------------------------------------------|
    a|-------------------------------------1------------------4------6-----------|
    E|---------------------------------------------------------------------------|

    e|--------3-----3s4---------3-----3s4---------3-----3s4--------------3---3---|
    h|-----6----6------6-----6----6------6-----6----6------6------6--------6-----|
    g|---5--5-----5--------5--5-----5--------5--5-----5---------5--5---5-------5-|
    d|-3-----------------6-------------------------------------------------------|
    a|-------------------------------------1------------------4------3-----------|
    E|---------------------------------------------------------------------------|

    Between first chorus and second verse, play the first line once and then start over.


    Chorus + Don't walk away part (overdrive):

    e|-1~----3~----6~----4--3-|
    h|-1~----3~----6~----4--3-|
    g|-1~----3~----6~----4--3-|
    d|-3~----5~----8~----6--5-|
    a|-3~----5~----8~----6--5-|
    E|-1~----3~----6~----4--3-|

    The accoustic guitar plays the same chords.
     
  7. 123_guitar

    123_guitar New Member

    Video Tutorial of "Give me some sunshine" from movie 3 idiots

    Hey, I know its a bollywood song, but i am posting it here:think:

    Here is the link to my video tutorial of this song on youtube: http://www.youtube.com/watch?v=oyc-Cwdo_Jk

    hope u like it;)
     
  8. waqas_punkkk

    waqas_punkkk New Member

    American idiot by green day
    complicated by avril lavigne
     
  9. jeit

    jeit New Member

    Many many thanks for "carnival".Played it.
     
  10. s-rani

    s-rani New Member

    hv u got tabs of you dont knw what love is by etta james?..
     
  11. shouryaKOO7

    shouryaKOO7 New Member

    reply to american idiot

    for more accuracy open in notepad;-()


    Intro/Verses
    e|-----------------------------------------------------|
    B|-----------------------------------------------------|
    G|--------6666------6----------------------------------|
    D|---666--6666--44--6--6--4----------------------------|
    A|---666--4444--44--4--6--4----------------------------|
    E|---444--------22-----4--2----------------------------|

    Chorus
    e|-----------------------------------------------|
    B|-----------------------------------------------|
    G|-----66666666------------88888888--------------|
    D|-----66666666--66666666--88888888--66666666----|
    A|-----44444444--66666666--66666666--66666666----|
    E|---------------44444444------------44444444----|

    e|-----------------------------------------------|
    B|-----------------------------------------------|
    G|-----66666666------------88888888--------------|
    D|-----66666666--66666666--88888888--------------|
    A|-----44444444--66666666--66666666--------------|
    E|---------------44444444------------------------|

    Solo
    e|---------------------------------------------------------------------------|
    B|---------------------------------------------------------------------------|
    G|-10-10-10-10-10-10-10-8-6-8-8-8-8-8-8--10-8-6-5-----------5-6-5----8-------|
    D|---------------------------------------------------8-8-8-8--------8--------|
    A|---------------------------------------------------------------------------|
    E|---------------------------------------------------------------------------|

    e|---------------------------------------------------------------------------|
    B|----10----11-13-13-11-9----------------------------------------------------|
    G|-10----10------------------------------------------------------------------|
    D|---------------------------------------------------------------------------|
    A|---------------------------------------------------------------------------|
    E|---------------------------------------------------------------------------|

    e|---------------------------------------------------------------------------|
    B|----------------------------------------------------------------------9----|
    G|-10-10-10-10-10-10-10-8-6-8-8-8-8-8-8--10-8-6-5-----------5-6-5----8-------|
    D|---------------------------------------------------8-8-8-8--------8--------|
    A|---------------------------------------------------------------------------|
    E|---------------------------------------------------------------------------|

    For the outro leave out the F#
     
  12. james gage

    james gage New Member

    hey this might be an annoying but could you tab "figures - Little Comets" please please man just the chords and lead part and if you could do it fast please i have to play this in a few days
     
  13. metalmonke

    metalmonke New Member

    American Idiot

    CHORDS:
    Intro and Verse:

    G5 C5 F5 C5 G5 F5

    Chorus:

    C5 G5 D5 G5

    SOLO:

    E|------------------------------------------------------------------------||
    B|------------------------------------------------------------------------||
    G|---------------------------------------------888-101010-121212-13/15/13-||
    D|---------------------------888-10-11-10-8-6-----------------------------||
    A|-888888-6-4--6666--8-6-4-3----------------------------------------------||
    E|------------------------------------------------------------------------||

    E|----------------------------------------------------------------||
    B|----------------------------------------------------------------||
    G|----------------------------------------------8/13~-------------||
    D|----------------------------888-10-11-10-8-6--------------------||
    A|-888888-6-4--6666--8-6-4-3--------------------------------------||
    E|----------------------------------------------------------------||
     
  14. deshpandechirag

    deshpandechirag New Member

    Pieces by Hoobastank?
     
  15. chaitali rockzz

    chaitali rockzz New Member

    can anybody gimme the chords of complicated by avril laviinge???
    plz plz plz repl at d earliezt
     
  16. abarag

    abarag New Member

    hi,
    can u plzgive me tabs and chords for dance of death by iron maiden??
     
  17. veerganga

    veerganga New Member

    Can you plz. give me Justin Bieber's bebe song's tabs plz. plz.
     
  18. tos

    tos New Member

    hey good work!

    can you post the god father theme tabs? and house of the rising sun? thanks!
     
  19. harmonizer

    harmonizer The Son of the Moon

    i want tabs for the song 'Cease to Exist' by 'Tristania'

    thanx in advance :)
     
  20. M!k3Y SyL4R

    M!k3Y SyL4R New Member

    For 21 Gunz...

    Heres the tab for d solo n Lead guitrix tab....
    Sry 4 l8 cuz juz saw...
    e----5----5----------------------------------------- |--------------------------------|
    B--6--6-8---6---6-----6-----3----------5-5-5-5-6-8-- x2 |----3----------5-5-5-5-5-5-5-5--|
    G-------------7---7-9---7-3---3-5-3-2--------------- |--3---3-5-3-2-------------------|

    For the chorus part lead guitariz play the chod bt pluck it like(Pluck first 2-then mute thumb hit for(1-21-guns)
    n then 1-2-3-2 it means d 1st string u r holding if C5 then its A-string, D, G den D n so on 4 other chords, for (lay down you heart, give up the fight/throw up your arms into d sky) play d laz measure(b4 U n I) 2x
    then for d U n I n outro its...
    1-2-3- oso bt play d laz measure(B4 pause) 2x
    N prob send me message in IGT n I'll reply wit a better tab...
    N moz of all Verse oni Acustix guitar, Chorus All 3(Ac, Lead, Rythm)
    Bridge-Play power chord n tiz time both rythm n lead strum d chord n ac just pluck it
    Tiz is hw ma band play...
    Hope u like it...
     

Share This Page