another pathetic attempt on "Sapney" by Silk Route

Discussion in 'Hindi Guitar Tabs - Submit or Request' started by atthanii, Apr 24, 2005.

  1. atthanii

    atthanii Theif Slayer

    Sapney - Silk Route

    again, i don't think these chords are right...but i just thought i give it a try...

    Intro:

    ..F......................................(not sure wot chord is dis)
    e--------1-----------1--------------1--------1----
    B------1-----------1--------------3--------3-------
    G---2------------2--------------3--------3--------
    D---------------------------------------------
    A----------------------------1---------1--------
    E-1-----------1--------------X---------X---------- REPEAT 2X

    Gm
    e-------3-------------------------------------
    B-----3----------------------------------------
    G---3------------------------------------------
    D---------------------------------------------
    A---------------------------------------------
    E-3--------------------------------------------

    ............................F...............Gm.
    e---------1---------1------------3--------------
    B------3----------1------------3-----------------
    G---3-----------2------------3-------------------
    D---------------------------------------------
    A-1--------------------------------------------
    E-------------1------------3-------------------- REPEAT 2X

    Strum.... the first chord and den F and den Gm.


    Gm....................F..........Gm.................F.....
    Sapney hain Suni aanken, jaane kyun kho gaye

    A#..........D#........C..........F..................Gm....
    socha tha saahil pe milega, thehraa sa, eik pal,

    Gm....
    eik pal

    Gm....................F.........Gm................F......
    Chandni hain yeh raatein, phir bhi tutey sitaare

    A#...........D#.......C................F.................Gm...
    Dhoondte hain yeh zameen par, thhraa sa, eik pal,

    Gm...
    eik pal

    Gm..............F.....Gm...............F...
    Andheri daastaan, kho gaye kahaaan

    Gm.............F......F..Gm.......
    hum to rah gaye..phir vaheen...

    Gm.............F.......Gm.............F....
    Aati hain eik sada, vaadiyon se kahin

    A#.....D#........C...........F................Gm.
    ajnabi raahon pe milega, thehra sa eik pal

    Gm....
    eik pal

    Gm..............F.....Gm...............F...
    Andheri daastaan, kho gaye kahaaan

    Gm.............F......F..Gm.......
    hum to rah gaye..phir vaheen...


    dat's it..i think....please lemme know of all the corrections...
     
  2. atthanii

    atthanii Theif Slayer

    no corrections?
     
  3. zohaib

    zohaib Shredder

    chords doesnt look correct to me :)
    corrections for the intro :-


    e-----------------------------------------------------
    B-----------------------4-----4------3------3--------
    G--------3-----3-----5-----5------3------3----------
    D-----3------3-----3-----3------5------5------------
    A---5------5-----5-----5------5------5-------------- do some repeatition in b/w these patterns
    E-----------------------------------------------------

    suggestions !
    comments !
    points !
    reps !
    are Welcomed :)
     
    DesiPride143 likes this.
  4. zohaib

    zohaib Shredder

    aH
    have look people !!!!
     
  5. zohaib

    zohaib Shredder

    r u guy cruel :mad:
     
  6. zohaib

    zohaib Shredder

    guyz :) spelling mistake
     
  7. DesiPride143

    DesiPride143 BEHAVE!

    ur intro sounds right....good job...
     
  8. zohaib

    zohaib Shredder

    chalo reply to aya :)
     
  9. rishkulnikhil

    rishkulnikhil New Member




    Try the G chord 320033 twice and Am 002210 twice, picking the 1st 4 strings, for intro. you can try playing Am then G. I am not so sure
     
  10. jimmy_cool

    jimmy_cool The Coolest One!!

    think your sequence is right @rishkulnikhil and i think ther's a Bm in also
     
  11. Arch_hornet

    Arch_hornet New Member

    REQ: Chords with chord diagrams for Silk Route's Sapnay!

    Hey all,
    After searching for a long long time, I have found the chords for Sapnay. But there are chords which I don't understand (like A# and D#). I tried a site to pick up the chord notations (for eg. A=002220) but even there I could not find A# and D#. Could anyone please provide these to me? I have been looking for Sapnay's chords for a long time, and now that I've found the chords (which I don't know if they are correct in the first place!) I don't know how to play them!
    I am a newbie and have been teaching myself... So please do this one favour!!! Thanks!
     

Share This Page