Ankahee(Lootera) Guitar Chords

Discussion in 'Hindi Guitar Tabs - Submit or Request' started by jimihndrx, May 30, 2013.

  1. jimihndrx

    jimihndrx Guitar Hero

    Lootera-New-Poster1.jpg
    Song- Ankahee
    Film- Lootera
    Music- Amit Trivedi
    Lyrics & Singer- Amitabh Bhattacharya

    Chords:


    Verse1:
    {(A)Kya kabhi savera..(C#m)ha ha
    (A)laata hai andhera..(C#m)ha ha
    (Bm)sookhi siyahi..(E)..ee..
    (Bm)deti hai gawaahi..(E)..ee..

    (F#)Sadiyon pu(Bm)raani
    (F#)aisi ik ka(Bm)haani
    (D)reh gayi reh ga(E)yi ankahee..(A)..ee..(C#m)..
    ..ankahee..(A)..ee..(C#m)..(A)..ee..}-[2 times]

    Interlude- {(A)..(A)..(F#m)..(F#m)..(D)..(Bm)..(Bm)..(A)}-[2 times]


    Verse2:
    (Bmadd11)Kya kabhi bahaar (A)bhi (D)peshgi (A)laati (C#7)hain
    (E)aane wale (A)patjhar ki..(C#m/G#)..(F#m)..

    (F#m)Oo..(Bm)baarishein naraaz(A)gi (D)bhi jataa (A)jaati (C#7)hain
    (E)kabhi kabhi (A)ambar ki..

    (Bm)Patte jo (A)shaakhon se (D)toote
    (Bm)bewajah (A)toh nahin (E)roothe hain sabhi..(A)..ee..

    rest is same


    jimihndrx (helping youtube uploaders & stupid copy-pasters to get their recognition since 2012)
     
    Last edited: Apr 24, 2017
  2. bhimendra mohan

    bhimendra mohan New Member

  3. DheartCracker

    DheartCracker New Member

    My Version Of Ankahee....
     
    Last edited by a moderator: Dec 30, 2013
  4. jimihndrx

    jimihndrx Guitar Hero

    Thanks Bro
     
  5. vinayak08

    vinayak08 New Member

    Perfect Chords jimihndrx ... I was searching for the Outro Leads for this song and couldn't find it anywhere. So decided it to tab it myself.

    Here's my humble effort (starts at around 3:49 on the song):

    E----------------------------------------------------------------------------------------------------------------
    B----------------------------------------------------------------------------------------------------------------
    G----------------------------------------------------------------------------------------------------------------
    D------------------------------------------------------------9---------------------------------------------------
    A-----7---9---9s11---9---7---6h7--||----7---9---9s11-----6---4h5-----------------------------------------
    E---7-------------------------------------7----------------------------------------------------------------------


    E----------------------------------------------------------------------------------------------------------------
    B----------------------------------------------------------------------------------------------------------------
    G----------------------------------------------------------------------------------------------------------------
    D------------------------------------------------------6---9----7~~-------------------------------------------
    A--9---7---5---7---7s9---11---12---11h12-----7------------------------------------------------------------
    E----------------------------------------------------------------------------------------------------------------

    Amit Trivedi rocks!

    Cheers guys!
     
  6. jimihndrx

    jimihndrx Guitar Hero

    thanks Vinayak..
     

Share This Page