Anbe an Anbe from Dhaam Dhoom

Discussion in 'Tamil Guitar Tabs - Submit or Request' started by bosprashanth, Oct 25, 2008.

  1. bosprashanth

    bosprashanth New Member

    i need to tis song Bass notes..... Pls Help Me.....
     
  2. munaz

    munaz New Member

    Ya please i need the Chords for this song...
    Thanks
     
  3. Lil_gm22

    Lil_gm22 New Member

    Anbae en Anbae

    Song is in BM

    Intro is like BM/-/BM D/EM/A
    BM/-/BM D/A/ BM

    Song Anbae En Anbae

    Anbae em Anbae BM/A/EM/BM
    Kanavae Kanavae BM/A/EM/BM

    Kannil sudum veyil BM/EM
    un nenjil BM/G/A

    Anbil adai mazhai BM/EM
    Ini aruginil vasapadum G/F#M


    i'm trying guys, if any mistake pls correct
    thanks :)
    dun give any negative remarks though ;)
     
  4. meganathan

    meganathan New Member

    sounds good ... nice try :)
     
  5. bosprashanth

    bosprashanth New Member

    Thx a lot....

    Nice try
     
  6. abhiju

    abhiju New Member

    hey instead of this yu can usew da followin chords also .. it sounds good
    Bm G Bm A this is for da intro flute .. otherwise urs is preety cool
     
  7. Lil_gm22

    Lil_gm22 New Member

    Yup true you can play Bm G Bm A too...

    Try this one also...Bm Em G A as for the flute intro....
     
  8. kannanmetallica

    kannanmetallica New Member

    Anbe En Anbe

    here is the full lead of the song Anbe en Anbe
    Anbae En Anbae

    From Dhaam Dhoom BY (Kannan) contact-kannan5858@gmail.com

    iam looking for MEMBERS FOR forming a band so interested individuals can contact me
    (ONLY FOR ENGLISH SONGS)


    Intro x2

    e-----------------------------------------------------------------------------------------

    B-5----h7p--5---5--5----h7p--5---5--5----h7p--5---5---7--8--7-----------------------------

    G-------------7----------------7-----------------7----------------------------------------

    D-----------------------------------------------------------------------------------------

    A-----------------------------------------------------------------------------------------

    E-----------------------------------------------------------------------------------------


    (anbae en anbae.......thavithane) and (kanavae kanave.......marandhane)

    x2
    e------------------------------------------------------------------------------------------

    B-8-8-7-8-5---8-7-5----10-10-----10-10-8-7-5-----------------------------------------------

    G-----------9-------5--------9-9-----------------------------------------------------------

    D------------------------------------------------------------------------------------------

    A------------------------------------------------------------------------------------------

    E------------------------------------------------------------------------------------------


    (kanil sudum.......)
    e-----------------------------------------------------------------------------------------

    B-10------10--10-8-7-8----10-----10--10-8-7-8--10-----10--10-8-7-8-------------------------

    G----9-9----------------9----9-9------------------9-9--------------------------------------

    D-----------------------------------------------------------------------------------------

    A-----------------------------------------------------------------------------------------


    (ene aruginial vasapadum sugam sugam)
    e-----------------------------------------------------------------------------------------

    B-7-8---10-11-10-11-10-11-10-11-10-9-7-9---------------------------------------------------

    G-----------------------------------------------------------------------------------------

    D-----------------------------------------------------------------------------------------

    A-----------------------------------------------------------------------------------------

    E-----------------------------------------------------------------------------------------




    then intro again x2


    (nee nee oru......) and (nan nan athil...)
    e-----------------------------------------------------------------------------------------

    B-10-10-----10--10-8-7-8-5-7---------------------------------------------------------------

    G--------9-------------------------------------------------------------------------------

    D-----------------------------------------------------------------------------------------

    A-----------------------------------------------------------------------------------------

    (undhan madienial ......) and (..........pilaithiduvanae )

    e-----------------------------------------------------------------------------------------

    B-----8-8-8-8-8-7-8-7-7-5------------------------------------------------------------------

    G-9------------------------9---------------------------------------------------------------

    D-----------------------------------------------------------------------------------------

    A-----------------------------------------------------------------------------------------

    E-----------------------------------------------------------------------------------------

    (kadalinilae kalakum nadhi.......) and (engu tholainthom.......)

    e-----------------------------------------------------------------------------------------

    B-10-10-10-10-10-8-8-8-8-8---7-7-7-7-5-7---------------------------------------------------

    G----------------------------------------7-------------------------------------------------

    D-----------------------------------------------------------------------------------------

    A-----------------------------------------------------------------------------------------

    E-----------------------------------------------------------------------------------------


    Thats all!!! please send comments(and if there any corrections i will be happy to correct it)
     

Share This Page