Alsiha Chinoy- Ek baar do baar (album: made in india)

Discussion in 'Hindi Guitar Tabs - Submit or Request' started by JUDAS_666, May 3, 2010.

  1. JUDAS_666

    JUDAS_666 New Member

    http://www.youtube.com/watch?v=AhrPT4CynV8


    (BASS)
    G--------0-0-0----------------0-0-0-2-2-2----------------------------------
    D-3-3-3--------2-2-0-----0------------------3-3-----3-2-0--0-------------------
    A----------------------3-3------------------------------------3---------------------
    E-------------------------------------------------------------------------

    (keyboard/guitar)
    E-----------------------------------------5-5-----------------------
    B-6-6-6-8-8-5-5---5------------8-8-8------6-6-----6-5-------------
    G---------------------7-5-5-7-----------------------------7-5--7--------
    D------------------------------------------------------------


    verse1
    F.......Gm..................F
    kya kahun,mein aaj tumse
    .............Gm................F
    tum duur yuun,jao na humse

    bridge1
    F..................Gm...........
    ab to mujhse,raha jaye naa
    D#...................C............
    kaaha jaye naa,saaha jaye naa (X2)

    chorus
    F..........Gm......c............F......
    ek baar do baar,tin baar chaar baar
    .................Gm.......c..........F......
    kahuun mein tumse,ab yehi baar baar
    F...............
    I love you love you

    verse2 (same as verse1)
    chhu liya, hai tune aise
    mujhko sanam, naajane kaise

    bridge2 (same as bridge1)
    jal raha hai yeh, mera tan badan
    badhti jaye hai, saas dam badam

    repeat chorus
    (keyboard with "sapera's bin" kinda synthesizer)
    Dm............Gm
    C.................F (X 4)


    bridge3 (same as in other bridges)
    bhigi raat hai, tera saath hai
    hotho pe mere, dil ki baat hai


    -----------------------------
    comments/ suggestion/ correction highly appreciated
    request any hindi song chord (if possible along with link for the mp3)
    bibek_yours@yahoo.com
     

Share This Page