Ali Zafar ek pal chords

Discussion in 'Pakistani Guitar Tabs - Submit or Request' started by larsan, Sep 5, 2005.

  1. larsan

    larsan K-Dash

    Dm ( 5 5 7 7 6 5) C (3 3 5 5 5 3) Am ( 5 7 7 5 5 5)

    Intro

    A-0-5-7-7-0-7-7-5-/-0-5-7-7-0-7-7-5

    (Dm) Yeh Zindagi ek (C) pal (Am) ka hai safar
    (Dm) Toh kya toh teri yaad (C) main (Am) jaye guzar

    Repeat Intro:A-0-5-7-7-0-7-7-5-/-0-5-7-7-0-7-7-5

    (Dm) Soye Zammen as(C)man jab (Am) raat ho
    (Dm) Par jagon teri yaad (C) main (Am) raat bhar

    (Dm) Tu Yeh (C) Janay (Am) na
    (Dm) Teri yaad main (C) janay (Am) Ja
    (Dm) Mainay chora (C) Yeh (Am) jahan
    (Dm) Main yahan ab (C) tu (Am) Kahan

    (Dm) Socha kya tune kya (C)Kabhi (Am) ai bay kahabar
    (Dm) Main chahoon tujhey (C) har ghari (Am) main iss ka dar

    A-0-5-7-7-0-7-7-5-/-0-5-7-7-0-7-7-5
    A-0-5-7-7-0-7-7-5-/-0-5-7-7-0-7-7-5
    A-0-5-7-7-0-7-7-5-/-0-5-7-7-0-7-7-5
    A-0-5-7-7-0-7-7-5-/-0-5-7-7-0-7-7-5

    G--------5---5---5--5-777---
    D------7---7---7--7------

    same chords repeat wid

    hooooooooooooooooooooooooooooooooooooooooooooooo hooooooooooooooooooooooooooooooooooooooooooo
    and so on

    enjpy ppl hope u like it:)
     
  2. larsan

    larsan K-Dash

    reply ppl:)
     
  3. rizaaj

    rizaaj Forum Leader

    looks nice larsan.. good work.. reps...

    PS.. havent tried them yet... will come back with valid reply tomorrow *Cheers*
     
  4. rizaaj

    rizaaj Forum Leader

    cant rep. you .. it says... You must spread some Reputation around before giving it to larsan again. :(
     
  5. Iqbal_shah

    Iqbal_shah New Member

    good work larsan ...i m new here on the site so please post me the addat chords
     
  6. larsan

    larsan K-Dash

    hi rizaaj...thx alot man...okay no problem i m concern wid my work....no problems for reps.....and i m sure u will like it....hey Iqbal shah wait i will just give u....these chords are not mine but i will mangae the best chords for u:)
     
  7. larsan

    larsan K-Dash

    Standard Tuning
    Intro ; ( 2x )
    e|-------------------------------------------------------------------|
    b|----------4------4------4------4-----------------------------------|
    g|-----6------6------6------6------6---------------------------------|
    d|---6---6------6------6------6------6-------------------------------|
    a|-4-----------------------------------------------------------------|
    e|-------------------------------------------------------------------|

    This is the first arpeggio . After playin this twice he plays another
    arpeggio , which is slightly diferent.
    ( 1x )
    e|-------------------------------------------------------------------|
    b|----------5------5------5------5-----------------------------------|
    g|-----6------6------6------6------6---------------------------------|
    d|---6---6------6------6------6------6-------------------------------|
    a|-4-----------------------------------------------------------------|
    e|-------------------------------------------------------------------|

    Basically the second arpeggio is played once everytime after the first arpeggio is played twice.
    Then the vocals come in after which he plays these 4 chords. Listen to the song to figure out the
    rhythm.
    ( 2x )
    e|-------------------------------------------------------------------|
    b|------4-----5-----4-----5------------------------------------------|
    g|------6-----6-----6-----6------------------------------------------|
    d|------6-----6-----7-----7------------------------------------------|
    a|------4-----4-----4-----4------------------------------------------|
    e|-------------------------------------------------------------------|

    After these chords are played once the lead electric guitar plays this.
    ( 1x )
    e|----------0--------------------0-----------------0----------0------|
    b|-2--0--2-----2--0-----2--0--2-----2--0------0-------0-------0------|
    g|------------------------------------------2---2--------2----2------|
    d|-------------------------------------------------------------------|
    a|-------------------------------------------------------------------|
    e|-------------------------------------------------------------------|

    Then comes the verse/chorus.

    e|-------------------------------------------------------------------|
    b|------5-----4-----2-----4------------------------------------------|
    g|------6-----4-----2-----4------------------------------------------|
    d|------6-----4-----2-----4------------------------------------------|
    a|------4-----2-----0-----2------------------------------------------|
    e|-----------------------------------=-------------------------------|

    The second lead part comes during the verse.

    e|-------4----7--4--------4----7--4----------2------4------5---------|
    b|---5-----5----------5-----5------------2-----2------2------2-------|
    g|-6---6------------6---6--------------2---2-----2------2------2-----|
    d|-------------------------------------------------------------------|
    a|-------------------------------------------------------------------|
    e|-------------------------------------------------------------------|

    e|-------4----7--4--------4----7--4----------2-------2---------------|
    b|---5-----5----------5-----5------------2-----------2---------------|
    g|-6---6------------6---6--------------2---2----2----2---------------|
    d|-------------------------------------------------------------------|
    a|-------------------------------------------------------------------|
    e|-------------------------------------------------------------------|

    Then he plays the verse again after which he plays the solo.


    e|-4--5--4-4-4-----------------------------------------------4--5--4-|
    b|---------------7--5--4-4-4---4--5--4--2--5-5--5h7--5---------------|
    g|-------------------------------------------------------------------|
    d|-------------------------------------------------------------------|
    a|-------------------------------------------------------------------|
    e|-------------------------------------------------------------------|


    e|-4--7--9--7--9s11--9--7-7-7--5h7--5--4--2--------------------------|
    b|-------------------------------------------------------------------|
    g|-------------------------------------------------------------------|
    d|-------------------------------------------------------------------|
    a|-------------------------------------------------------------------|
    e|-------------------------------------------------------------------|

    During the solo this is played in the background.

    e|-------------------------------------------------------------------|
    b|---------5-------------4-------------2-------------4---------------|
    g|-----6---6---------4---4---------2---2---------4---4---------------|
    d|---6-----6-------4-----4-------2-----2-------4-----4---------------|
    a|-4-------4-----2-------2-----0-------0-----2-------2---------------|
    e|-------------------------------------------------------------------|

    After this , this is played together with the verse.
    ( 2x )
    e|-7--7--7-9--9-9---7--7--7-9--9-9---7-7--5--5-5--5-7--7-7--7-7------|
    b|-5--5--5s7--7-7---5--5--5s7--7-7---5-5--3--3-3--3s5--5-5--5-5------|
    g|-6--6--6-8--8-8---6--6--6-8--8-8---6-6--4--4-4--4-6--6-6--6-6------|
    d|-------------------------------------------------------------------|
    a|-------------------------------------------------------------------|
    e|-------------------------------------------------------------------|

    Then comes the part with the distorted power chords.
    ( 2x )
    e|-------------------------------------------------------------------|
    b|-------------------------------------------------------------------|
    g|-6-6-6-6-6-6-6---6-6-6-6-6-6-6---2-2-2-2-2-2-2---4-4-4-4-4-4-4-----|
    d|-6-6-6-6-6-6-6---6-6-6-6-6-6-6---2-2-2-2-2-2-2---4-4-4-4-4-4-4-----|
    a|-4-4-4-4-4-4-4---4-4-4-4-4-4-4---0-0-0-0-0-0-0---2-2-2-2-2-2-2-----|
    e|-------------------------------------------------------------------|

    Then these same chords are played in the same rhythm as the verse ( but
    in a different pattern ) along with the verse.

    e|-------------------------------------------------------------------|
    b|------6-----4-----2-----4------------------------------------------|
    g|------6-----4-----2-----4------------------------------------------|
    d|------4-----2-----0-----2------------------------------------------|
    a|-------------------------------------------------------------------|
    e|-------------------------------------------------------------------|
    |
    Finally , the song ends with this.

    e|-------------------------------------------------------------------|
    b|---------5-------------4-------------2-------------4---------------|
    g|-----6---6---------4---4---------2---2---------4---4---------------|
    d|---6-----6-------4-----4-------2-----2-------4-----4---------------|
    a|-4-------4-----2-------2-----0-------0-----2-------2---------------|
    e|-------------------------------------------------------------------|

    Well , thats it.
     
  8. shahrukh_6

    shahrukh_6 New Member

    thank u larsan very much!!!
     
  9. kl12

    kl12 (Ghost Note)

    (Am) yeh zindagi aik (C) Pal ka hai (em)safar.........
    (Am) tu kya jo teri yaad(C) mein jayay (em)guzar...

    try it.
     
  10. larsan

    larsan K-Dash

    yeh u can use these also.............but my one are close....but ur wish:)...no probz shahrukh_6my pleasure:):)...............and plz ppl reply
     

Share This Page