Ajeeb Daastan Hai Ye... tabs

Discussion in 'Hindi Guitar Tabs - Submit or Request' started by jayat, Jul 6, 2005.

  1. jayat

    jayat New Member

    Hi guys... ive tabbed this song my self n it sounds ok to me.. hope u also like it.. here it goes......

    AJEEB DASATAN HAI YE,

    E:77---9--7---------------
    B:-----------9---7------9--
    G:-------------------9------

    KAHAN SHURU KAHAN KHATAM,

    E:77---9--7---------------
    B:-----------9---7------7--
    G:-------------------9------

    YE MANZILEN HAI KAUNSI,

    E:----------------------------
    B:77-----9--7---------------
    G:-------------9-8-9-8------

    NA WO SAMAJH SAKE NA HUM.

    E:77---9--7---------------
    B:-----------9---7---------
    G:-------------------99----



    MUBARAKE TUMHE KE TUM,

    E:---------------------------
    B:----7-9--7-9--7-9------
    G:99-----------------------

    KISIKE NOOR HO GAYE,

    E:77---9-7-----9-7------
    B:-----------99-----------
    G:-------------------------

    KISIKE ITNE PAAS HO,

    E:11-11--9-9----7---------
    B:-------------------9--99--
    G:----------------------------

    KI SABSE DOOR HO GAYE.

    E:-----------------------------
    B:9-7--9-7-------------------
    G:------------99--8-9--------


    REPEAT FROM AJEEB DASTAN .... FROM THE BEGINING AGAIN.
     
  2. anuragknathan

    anuragknathan New Member

    try this

    ajeeb dastan hai yain,

    -----9-7-9-7-----------
    ---------------9-7---9--
    ---------------------9---
    --------------------------
    --------------------------
    --------------------------

    Kahan shru kahan khatam,

    -----9-7-9-7-------------
    ---------------9-7-----7--
    ----------------------9----
    ----------------------------
    ----------------------------
    ----------------------------

    YE MANZILEN HAI KAUNSI,

    --------------------------------
    --9-7-9-7-------9-7---------
    ------------9-8----------------
    --------------------------------
    --------------------------------
    --------------------------------

    NA WO SAMAJH SAKE NA HUM.
    (play it fast)

    --9-7-9-7---------------------
    ------------9-7------7---------
    -----------------9-8------------
    ---------------------------------
    ---------------------------------
    ---------------------------------
     
  3. vini

    vini Repeat Offender

    @jayat the 77 u have used in initial 4 riffs try out 7 9

    @anurag i think u've replaced the WOH SAMAJH SAKE part and YEH MANZILE..i mean interchanged

    NA WOH SAMAJH..part>>

    e----------------------------
    B-9-7-9-7----------------------
    G-----------9-8-4-9----

    try&temme how it sounds?

    tahda!!
     
  4. Arka

    Arka New Member

    Great work dude .
     
  5. jayat

    jayat New Member

    hey vini.. that too sounds ok to me.. gud work.
     
  6. anuragknathan

    anuragknathan New Member

    i dunno vini the 4-9 doesnt sound good, rest is good though
     
  7. Loverboy

    Loverboy New Member

    tabs for this song is already present on this site. they r quite ok i think if u want u can check those also.
    thanx
    love
     
  8. ethical_rocker

    ethical_rocker New Member

    thanks fellas..
    vini 4-9 does wrk fr me..
    ROCK ON!!!!!!!!!!
     
  9. jhinga1972

    jhinga1972 New Member

    great work done

    AJEEB DASATAN HAI YE,

    E:77---9--7---------------
    B:-----------9---7------9--
    G:-------------------9------

    KAHAN SHURU KAHAN KHATAM,

    E:77---9--7---------------
    B:-----------9---7------7--
    G:-------------------9------

    YE MANZILEN HAI KAUNSI,

    E:----------------------------
    B:77-----9--7---------------
    G:-------------9-8-9-8------

    NA WO SAMAJH SAKE NA HUM.

    E:77---9--7---------------
    B:-----------9---7---------
    G:-------------------99----



    MUBARAKE TUMHE KE TUM,

    E:---------------------------
    B:----7-9--7-9--7-9------
    G:99-----------------------

    KISIKE NOOR HO GAYE,

    E:77---9-7-----9-7------
    B:-----------99-----------
    G:-------------------------

    KISIKE ITNE PAAS HO,

    E:11-11--9-9----7---------
    B:-------------------9--99--
    G:----------------------------

    KI SABSE DOOR HO GAYE.

    E:-----------------------------
    B:9-7--9-7-------------------
    G:------------99--8-9--------


    REPEAT FROM AJEEB DASTAN .... FROM THE BEGINING AGAIN.[/QUOTE]
     
  10. ArindamSarkar

    ArindamSarkar New Member

    E------------------------------------------------------
    A------------------------------------------------------
    D------------------------------------------------------
    G------------------------------------------------------
    B-----------(10)8-68(10)----------(10)8-66h8-----------
    e-(10)8(10)8------------(10)8(10)8---------------------..................

    From: http://desichords.blogspot.com/2009/04/ajeeb-daastaan-hai-yeh-3-tabs.html
     
  11. rishidoshi

    rishidoshi New Member

    Fine corrections... ajeeb dastan hai yeh

    hello guys. neat tabs posted here by Jayat and company...but at some places its slightly off...
    heres (as per my ears) the corrected version.....

    AJEEB DASATAN HAI YE, (1st two notes can be 7--7 or 9--7 .. see which sounds best 4 u)

    E:9-7---9--7---------------
    B:-----------9---7------9--
    G:-------------------9------

    KAHAN SHURU KAHAN KHATAM,

    E:9-7---9--7---------------
    B:-----------9---7------7--
    G:-------------------9------

    YE MANZILEN HAI KAUNSI,

    E:----------------------------
    B:9-7---9--7---------------
    G:-------------9-8-6-8p6~~~ ---

    NA WO SAMAJH SAKE NA HUM.

    E:77---9--7---------------
    B:-----------9---7---------
    G:------------------9-9/4---- (slide upto 4.. or till it mutes-infinity)


    (heres the correction thats MAJOR!!!)
    MUBARAKE TUMHE KE TUM,

    E:---------------------------
    B:---7-9-10--9-10--7-10------
    G:9-----------------------

    KISIKE NOOR HO GAYE,

    E:9-7---9-7-------9-7~~~---
    B:----------10-10-----------
    G:-------------------------

    KISIKE ITNE PAAS HO,

    E:11-11--9-11--9--9h11p9-------
    B:-------------------------12-- (may be 12)
    G:----------------------------

    KI SABSE DOOR HO GAYE.

    E:77---9--7---------------
    B:-----------9---7---------
    G:------------------9-9/4---- (slide upto 4.. or till it mutes-infinity)

    ------------
    Im shown as a "newbie" here.. lol.. (may be i dont post much)
    i was the lead guitarist at a band in IIT. :) cheers!!
    a.k.a.
    RiDo.
     
  12. sandeepuae

    sandeepuae New Member

    Thank you very much...

    :rock: :band:
     
  13. jainrobindra

    jainrobindra New Member

    @ rishi

    dude urs is the most accurate & perfect one, i so wanted this tabs thanx a lot man...
     
  14. aradhya(blue)

    aradhya(blue) New Member

    E:7-7---9--7---------------
    B:-----------9---7------9--
    G:-------------------9------
    den play the chord "D"


    KAHAN SHURU KAHAN KHATAM,

    E:7-7---9--7---------------
    B:-----------9---7------7p9-
    G:-------------------9------

    "A" Chord

    YE MANZILEN HAI KAUNSI,

    E:----------------------------
    B:7-7---9--7---------------
    G:-------------9-8-6-8p6~~~ ---

    chord "G"

    NA WO SAMAJH SAKE NA HUM.

    E:77---9--7---------------
    B:-----------9---7---------
    G:------------------6/9---- (slide upto 4.. or till it mutes-infinity)
    chord "D"

    (heres the correction thats MAJOR!!!)
    MUBARAKE TUMHE KE TUM,

    E:---------------------------
    B:---7-9-10--9-10--7/10------
    G:9-----------------------
    chord "A"

    KISIKE NOOR HO GAYE,

    E:9-7---9-7-------9-7~~~---
    B:----------10-10-----------
    G:-------------------------
    chord "D"

    KISIKE ITNE PAAS HO,

    E:11-11--9-11--9--9/11-------
    B:-------------------------12--10
    G:----------------------------
    chord "A"

    KI SABSE DOOR HO GAYE.

    E:77---9--7---------------
    B:-----------9---7---------
    G:------------------6/9---- (slide upto 4.. or till it mutes-infinity)
    chord "D"
     
  15. aradhya(blue)

    aradhya(blue) New Member

    pattern is d(base)d(full) d(base)d(base)d(full)
    full= strum 6strings on chord "g" , 5 on chord "a" and 4 strings on chord"d"......

    hope m clear!!
    tnx!
     
  16. deepakmangela

    deepakmangela New Member

    Coooooooooool......... !!!!
     
  17. inevitable

    inevitable New Member

    heyy guys try F scale on this song that ll be even better...
     
  18. shrutivista

    shrutivista New Member

    great piece of work

    The correction made by you is amazing it just has little problem with the end of kisi ke itne paas ho... but rest of the correction made is superb
     

Share This Page