ajeeb daastaan hai yeh

Discussion in 'Hindi Guitar Tabs - Submit or Request' started by amogh_war, Nov 4, 2006.

  1. amogh_war

    amogh_war New Member

    ajeeb daastaan hai yeh_tabs and chords submission

    hi all
    few days back i tried out this song and worked out the tabs and chords.but when i compared them with the posts on IGT i found that mine were not correct. i am posting the tabs i figured out and how i arrived at the chords...could someone please tell me where i went wrong?

    tabs:

    I:ajeeb daastaan hai yeh

    E--5-3-5-3-----------------------------
    B-----------5-3-------5h-----------------------
    G-----------------5-----------------------------
    D------------------------------------------------
    A------------------------------------------------
    E---------------------------------------------------


    II:kahaan shuru kahaan khatam

    E---5-3-5-3--------------------------------------------
    B--------------5-3---3------------------------
    G------------------5-----------------
    D-------------------------------------------------
    A-------------------------------------------------
    E---------------------------------------------------

    III yeh manzilen hai konsi
    E-------------------------------------------------
    B----3-3-5-3---------------------------------------------
    G------------5-4-2-4h-2-------------------------------------
    D-------------------------------------------------
    A---------------------------------------------------
    E---------------------------------------------------

    IV: na woh samajh sake na hum
    E--3-3-5-3-------------------------------------------------------
    B-----------5-3----------------------------------------------
    G-------------- 5-5-5-5-5-5-5-5-5-5-5-5-5-5-5-5-5-----------------------
    D-------------------------------------------------------------------------
    A-------------------------------------------------------------------------
    E-------------------------------------------------------------------------

    V:yeh roshni ke saath kyon
    E-------------------------------------------------------------------------
    B------3-5-6--3-5-3-6-------------------------------------------
    G---5----------------------------------------------------------------
    D-------------------------------------------------------------------------
    A-------------------------------------------------------------------------
    E-------------------------------------------------------------------------

    VI:dhuan utha chiraag se
    E--5-3-5-3-----5-3------------------------------------------------
    B----------6-6-------------------------------------------------------
    G-----------------------------------------------------------------
    D---------------------------------------------------------------
    A------------------------------------------------
    E-------------------------------------------------------------------------

    VII:yeh khwaaab dekhti hoon main
    E---5/7-7-5-7-5-7-3-5h-3--
    B-------------------------6-----------------
    G----------------------------------------------
    D----------------------------------------------------------------
    A-------------------------------------------------------------------
    E-------------------------------------------------------------------------

    VIII:ke jag gayi hoon khwaab se
    E--5-3-5-3-----------------------------------------------
    B------------5-3-----------------
    G------------------5-5-5-5-5-5-5-5-5-5-5-5-5-------
    D---------------
    A-------------------------------------------------
    E-------------------------------------------------


    from I i got the chords G and C
    from II i got the chords C and Dm
    from III i got F
    from IV i got C again
    from V i got Dm
    from VI i got G
    from VII i got A# and Dm
    from VIII i got C

    so now the song goes like:

    G------------------C
    ajeeb daastaan hai yeh
    ------------------------Dm
    kahaan shuru kahaan khatam
    -----------------F
    yeh manzilen hai konsi
    -----------------------C
    na woh samajh sake na hum
    G--------------------Dm
    yeh roshni ke saath kyon
    -------------------G
    dhuan utha chiraag se
    A#-----------------------Dm
    yeh khwaaab dekhti hoon main
    ------------------------C
    ke jag gayi hoon khwaab se



    please forgive the lyrics they are a bit jumbled up.also i know that the chords that i have mentioned do not belong to a family i guess G is the odd man out but i couldnt think of anything better based on the tabs.
    happy strumming
     
  2. jozko

    jozko Banned

    went throught start of tabs. good cool work! i think little problem with scale only, which is not a problem :)

    Bandbaaja has given in scale F http://www.indianguitartabs.com/showthread.php?t=7612

    your chords also are also cool. just compare with Bandbaaja's and make necesary changes. u may want to stick to same scale. use chords that goes harmoniously with singing. keep posting. happy guitaring, rgds
     
  3. jozko

    jozko Banned

    ^ sorry wait theory people will help u
    V
     
  4. Morbid_Angel

    Morbid_Angel Sid the sloth

    @amogh
    Your chords are correct if you are singin in a different scale yourself.
     

Share This Page