Aik Pal by Ali Zafar Guitar Tabs

Discussion in 'Pakistani Guitar Tabs - Submit or Request' started by pure_angel, Aug 22, 2005.

  1. pure_angel

    pure_angel New Member

    AIK PAL ALI ZAFAR

    Intro

    B--5------5----3-----

    G-----3--------------


    B-----3----5----3---5---3---

    G--5------------------------


    B-----3----5----3---5---3---

    G--5------------------------


    B---1---3-------------

    G---------------------

    Verse

    G---9-9--7-----9-----7--5--4-
    D---------------------------

    Ye Zindagi Aik Pal


    G----4--5---7---------
    D--5------------------

    Ka Hai Safar


    G---9-9--7-----9-9-----7--5--4
    D----------------------------

    Tu Kya Jo Teri Yaad Mein


    G----4--5---7---------
    D--5------------------

    Jaye Guzar


    REPEAT INTRO


    B---------------------------
    G---9-9--7-----9-----7--5--4-
    D---------------------------

    Soye Zameen Asmaan


    G----4--5---7---------
    D--5------------------

    Jub Raat Ho


    G---9-9--7-----9-9-----7--5--4
    D----------------------------

    Per Jagoon Teri Yaad Main


    G----4--5---2---------
    D--5------------------

    Main Raat bhar

    G---9--9---7--5--4--

    Tu Ye Jane Na

    G---4--5--9--9--7--5--4

    Teri Yaad Mein Jane Jaan

    G---4--5--9--9--7--5--4

    Meine Chora Ye Jahan

    G---4--5--9--9--7--5--4

    Main Wahan Ab Tu Jahan


    G---9-9--7-----9-----7--5--4-
    D---------------------------

    Soucha Ye Tune Kya Kabhie


    G----4--5---7---------
    D--5------------------

    Ae Bekhabar


    G---9-9--7-----9-9-----7--5--4
    D----------------------------

    Ke Chahon Main Tumko Her Ghari


    G----4--5---2---------
    D--5------------------

    Main Kis Qadar


    REPEAT INTRO

    End


    i need comments...
     
  2. ahsanai_12

    ahsanai_12 New Member

    wowwwwww man dats amazing...evry1 must try this its a really nice song...good jobbbb angel!! :nw: :nw: :rock: :beer:
     
  3. Imranyou2k5

    Imranyou2k5 New Member

    I always thought ali zafar was a good singer but after i got into vocals i realize hes not that good hes actually pretty ordinary
     
  4. J.J

    J.J The Guitar God

    vocal tabs...good work...
     
  5. faiqgiant

    faiqgiant .: Innocent :.

    hay jj can u make out da chords
     
  6. dark_angel

    dark_angel New Member

    Waow.....you've done great job...
     
  7. ahsanai_12

    ahsanai_12 New Member

    hey angel i played dis a few times n well dis part mayb b off buh a note...
    G---4--5--9--9--7--5--4

    Teri Yaad Mein Jane Jaan


    it shuld b

    G---4--5--9--9--9--7--5--4

    juss a slight prob. otha thn tht its perfecttt!!
     
  8. pure_angel

    pure_angel New Member

    ahsani you are right... i thot of this too... thanks
     
  9. pure_angel

    pure_angel New Member

    Faiqjiant.. i am working on chords...
     
  10. Lahori_rocker

    Lahori_rocker Guitar God left IGT

    please post the chords soon
     
  11. Spellbinder

    Spellbinder Crescentarian

    hey i d like 2 to do sum chords

    yeah they r just great i have figured out sum chords i will soon give them out

    I think A#m G & F
    _______________________
    Its MAGIC!!!!!!!! :rock:
     
  12. coolguy

    coolguy New Member

    well done ......... these tabs are brilliant!!!
     
  13. nabzy

    nabzy New Member

    awesome tabs! thanks!!
     
  14. Aka Oz

    Aka Oz /\K/\ - Ozy

    angel bohot undeh.zabardust........
     
  15. larsan

    larsan K-Dash

    Dm ( 5 5 7 7 6 5) C (3 3 5 5 5 3) Am ( 5 7 7 5 5 5)

    Intro

    A-0-5-7-7-0-7-7-5-/-0-5-7-7-0-7-7-5

    (Dm) Yeh Zindagi ek (C) pal (Am) ka hai safar
    (Dm) Toh kya toh teri yaad (C) main (Am) jaye guzar

    Repeat Intro:A-0-5-7-7-0-7-7-5-/-0-5-7-7-0-7-7-5

    (Dm) Soye Zammen as(C)man jab (Am) raat ho
    (Dm) Par jagon teri yaad (C) main (Am) raat bhar

    (Dm) Tu Yeh (C) Janay (Am) na
    (Dm) Teri yaad main (C) janay (Am) Ja
    (Dm) Mainay chora (C) Yeh (Am) jahan
    (Dm) Main yahan ab (C) tu (Am) Kahan

    (Dm) Socha kya tune kya (C)Kabhi (Am) ai bay kahabar
    (Dm) Main chahoon tujhey (C) har ghari (Am) main iss ka dar

    A-0-5-7-7-0-7-7-5-/-0-5-7-7-0-7-7-5
    A-0-5-7-7-0-7-7-5-/-0-5-7-7-0-7-7-5
    A-0-5-7-7-0-7-7-5-/-0-5-7-7-0-7-7-5
    A-0-5-7-7-0-7-7-5-/-0-5-7-7-0-7-7-5

    G--------5---5---5--5-777---
    D------7---7---7--7------

    same chords repeat wid

    hooooooooooooooooooooooooooooooooooooooooooooooo
    hooooooooooooooooooooooooooooooooooooooooooo
    and so on

    enjpy ppl hope u like it
    my own work:)
     
  16. maniboy

    maniboy New Member

    real chords

    hey ppl i think the first 2 chords r
    A(577655) and E(022100)
    so the song goes
    A E
    yeh zindagi aik pal ka hai safar
    A E
    toh kya jo teri yaad mein jaye guzar
    A E
    soye zameen asmaan jab raat ho
    A E
    per jagoon teri yaad mein me raat bhar

    soo how is it mann i cant figur out the next stanza
    i need comments
     

Share This Page