Ae Kaash Ke Hum from the movie movie Kabhi Haan Kabhi Naa

Discussion in 'Hindi Guitar Tabs - Submit or Request' started by JAZBAA, Feb 6, 2009.

  1. JAZBAA

    JAZBAA New Member

    A..........D.........F...............C...........D
    Ae Kash Ke Hum Hosh Mei Ab aane Na Payen
    D....................C.........F..........A
    Bas nagme tere pyar ke gaate hi jaayen
    A..........D.........F...............C...........D
    Ae Kash Ke Hum Hosh Mei Ab aane Na Payen
    Dm...................................A#.......C... ........
    Khilte mehakti yeh zulphon ki shaam, haste khanakte ye hothon ke jaam
    Dm...................................A#.......C... ........
    Khilte mehakti yeh zulphon ki shaam, haste khanakte ye hothon ke jaam
    F......................C......
    Aa jhoom ke saaz uthaen
    D.....................C..........F.........A
    Bas anagme tere pyar ke gaate hi jaayen
    A..........D.........F...............C...........D
    Ae Kash Ke Hum Hosh Mei Ab aane Na Payen


    I think this is the first attempt of this song in INDIAN GUITAR TABS. Hope u like this.
     
  2. gaurav.dhyani

    gaurav.dhyani New Member

    Hey Jazbaa.. nice song selection frnd...
    bt can u give me the tabs for all the songs u've uploaded recently.. i am too new to guitars.. cant play chords..

    thanks in advance.. :)
     
  3. Hawkeye

    Hawkeye New Member

  4. JAZBAA

    JAZBAA New Member

    Gaurav this is for you.

    Song name : Aisi Deewangi

    E|---------9-11--9--------------------------------------------------|
    B|--9--10----------9------------------------------------------------|
    G|------------------------------------------------------------------|
    Aisi Deewangee.....,

    E|------------------------------------------------------------------|
    B|--10-9--10-9--10-9--10-9------------------------------------------|
    G|------------------------------------------------------------------|
    HmHm HmHm HmHm HmHm


    E|---------9-11--9--------------------------------------------------|
    B|--9--10----------9------------------------------------------------|
    G|------------------------------------------------------------------|
    Dekhi Nahin .. Kahi .....,

    E|------------------------------------------------------------------|
    B|--10-9--10-9--10-9--10-9------------------------------------------|
    G|------------------------------------------------------------------|
    HmHm HmHm HmHm HmHm

    E|------------------------------------------------------------------|
    B|-9--12-10------10-9-----------------------------------------------|
    G|------------8-----------------------------------------------------|
    Maine... aeae.... Isliye... aeae.... ,

    E|-12-11--9-11-----14----11-12--------------------------------------|
    B|------------------------------------------------------------------|
    G|------------------------------------------------------------------|
    Jaane Jaana.... Deewana.....aa,

    E|-9-9--8-9----11-11--12----------11--------9--8-9------------------|
    B|---------------------------9-9------------------------------------|
    G|------------------------------------------------------------------|
    Tera Naam.., Likh Diya..., Tera Naaam..., Likh Diya...,


    E|-9-9--8-9----11-11-11--12----------11--------9--8-8-9-------------|
    B|------------------------------9-9---------------------------------|
    G|------------------------------------------------------------------|
    Haan Naaam.. Likh Diya.., Tera Naaam..., Likh Diya...,


    E|-9-9----9--9----11-11-12------12-11--11-9--8----11-11--9-9-----|
    B|------9-----------------------------------------------------------|



    Other Links are http://www.indianguitartabs.com/showthread.php?t=39551 and http://www.indianguitartabs.com/showthread.php?t=39569
     

Share This Page