Adiye kolluthey few parts

Discussion in 'Tamil Guitar Tabs - Submit or Request' started by jabuthe, Mar 17, 2009.

  1. jabuthe

    jabuthe New Member

    --------------------------------------------------------------------
    --------------------------------------------------------------------
    --------------------------------------------------------------------
    ---------5-5-5-5-5-5-5-7---------------------------------------------Repeat 3 times
    --7------------------------------------------------------------------
    --5------------------------------------------------------------------
    . . . . . .

    --------------------------------------------------------------------
    --------------------------------------------------------------------
    --------------------------------------------------------------------
    ------7----5----------------------------------------------------------
    ----------------7----5^^------------------------------------------------
    --------------------------------------------------------------------
    . . .

    --------------------------------------------------------------------
    --------------------------------------------------------------------
    --------------------------------------------------------------------
    ---------5-5-5-5-5-5-5-7---------------------------------------------Repeat 3 times
    --5/7------------------------------------------------------------------
    --3/5------------------------------------------------------------------
    . . . . . .



    --------------------------------------------------------------------
    --------------------------------------------------------------------
    -------7p5-------------------------------------------------------------
    ------------7---7p5-----------------------------------------------------
    ----------------------7---7p5-------------------------------------------
    --------------------------------8----8p7--5^---------------------------



    . - palm mute
    p - pull off
    / - slide
    ^ - bend
    ^^ - pinch harmonic + bend


    Chords involved in the songs r D, G, A, F sharp, E most likely!!
     
  2. jabuthe

    jabuthe New Member

    the thread does not support spaces in the beginning and in between the sentences.. so "." (palm mute is mal placed)
     
  3. ishnu

    ishnu New Member

    dude can u give the entire chords clearly ???
    im a newbie plssssssssssssss
     
  4. roentgen

    roentgen Member

    Here are my chords for this song.

    Am through first 2 lines
    Adiye Kolluthey alagho aluthe
    Ulagham surunguthe iruvaril adanguthe

    Dm----Dm-------G-----G
    Unnodu nadakkum ovuru nodikum

    Am-----Am-----G
    Artangal sernthiduthe

    (Same as above)
    En kaalai neram en maalai vaanam
    Nee indri kayinthiduthe

    Stanza

    Am for first 3 lines
    Iravum Paghalum un mugam
    Irayai pole Thurathuvadum yeno
    Mudhalum Mudivum Neeyena

    Am------Am---------G--------D
    Therinthu pinbu thayanguvathum yaeno?

    G----G-------G------G----C
    Vadai kaatrilin oru naal oru vasam

    ----------C---D---------------D
    Vandhathu un nesam endrathae

    G-----D/F#---Em--Em------C----------------C
    Undan kangalin yedo.........minsaram vandhathae

    ----D-----------------D
    Yen meedu payinthadae

    C---------------C-----------D------------D
    mazhai kaalathil sariyum man tharai polave manamum

    C---------------C-----------D
    Unnai kandadum sariya kandene


    Rajesh
     
  5. meganathan

    meganathan New Member

    sounds nice in acoustic.

    have to try in electric.. wat would be the difference? ny idea? and how about the initial staumming part? ny idea how to play in electric?
     
  6. edgesofdarkness

    edgesofdarkness New Member

    could someone gimme the tabs
     
  7. Stormbolts

    Stormbolts New Member

    mithun u bloody assole... yen over scene podra?
     
  8. darock

    darock New Member

    hey dude,
    i'm newbie, can u also lemme know the strum pattern for this song?

    thanks
     
  9. ibanez1997

    ibanez1997 New Member

    Im pretty sure its half step up...the lead is just pentatonics...but it sounds GOOD!
     

Share This Page