Aaroh - Raag Neela- Opening Riff + some chords.

Discussion in 'Pakistani Guitar Tabs - Submit or Request' started by Quadrophenia, Apr 15, 2007.

  1. Quadrophenia

    Quadrophenia New Member

    Aaroh- Raag Neela
    tabbed: by quad

    My attempt at raag neela.

    -------------------------------------------------------------------------
    -------------------------------------------------------------------------
    ------------------------------------------------10-9h10p9---------------
    -----------9-----------4-5--4-5-------------9-------------12-11h12p12--
    -----------7------4--6----------------------7--------------------------12
    ----0---0--0-------------------------0---0--0----------------------------

    Every Alternate time after playign the opening riff play the chord progression
    G5>A5>Bb5 (single up strums!)

    Chorus Chords
    Alternate between E5 and G5 (raag neela..,raag neeela)
    next progession during chorus is G5,A5,Bb5,A5,G5 (mera meeray ...)
    when he ends on ''Raag'' play A5.
    i'm not sure about the chords hes playing during the verses..i ve seen them play live and i think haider uses 7th/6th chords. not sure. dont quote me on this.
    if soemone figures out more chords for verses do let me know or if there are any corrections.
    :cool:
     
  2. maaani

    maaani New Member

    i ill check and thenn i ill reply...
     
  3. Quadrophenia

    Quadrophenia New Member

    yeah sure thing lemme know. thanx.
     
  4. sabih10

    sabih10 New Member

    yar ......the part of song u have figure out is absolutely correct n i think it needs no corrections...... but try to figure out the verses n let us know m also tryin..... so best of luck!!!!! n thanx
     
  5. maaani

    maaani New Member

    well first, i would like to appriciate u that u worked for this ... according to me ... the riff is 50 to 60% right. and some chords r right ... i am not a good guitarist .. and i know u r really cool guitarist .. so if u r sure that ur worked is 90 to 100% right... than leave a comment that its right...
     
  6. Quadrophenia

    Quadrophenia New Member

    @maani ..thanx man its all good .. dont worry i wont get offended if u tell me that its wrong :p i havent been playing that much and i'm not as good as you think. anyhow thats besides the point..the seond riff im not confident about it. but the first one yeah i am pretty sure thats what hes playing
     
  7. maaani

    maaani New Member

    ya me also sure that ur first part of riff is really coool:rock: but the second part of riff has some problem ... well i really appricaiatu u ....
     
  8. Quadrophenia

    Quadrophenia New Member

    UPDATE!

    Aaroh- Raag Neela
    tabbed: by quad

    -------------------------------------------------------------------------
    -------------------------------------------------------------------------
    -----------------------------------------------------------------------
    -----------9-----------4-5--4-5-------------9----5p4---------------------
    -----------7------4--6----------------------7----------6--5h6p5----------
    ----0---0--0-------------------------0---0--0----------------------5------

    G5>A5>Bb5 (single up strums!)

    Verse:
    Am (5x7555) Gm(3x5333)
    Suna hai meine tuj ko.... mujhsay nahin hai pyaar
    Am (5x7555) Gm(3x5333)
    yeh hona he tha aur mein.... kab se tha tyaar
    Gm(3x5333)
    meri duniya thi.... eik faraib
    Am (5x7555)
    chehray thi khushi.

    Chorus

    Aur gaa ta rehtay tha mun
    E5(079xxx) G5(355xxx)
    raag neela raag neela
    raag neela raag neela
    raag neela raag neela

    G5>A5>Bb5>A5>G5
    mera neela neela

    raag neela raag neela
    raag neela raag neela
    raag neela raag neela

    G5>A5>Bb5>A5>G5 E5
    mera neela neela.... raaag

    I think its the same pattern throughout the song. try it someone give me feedback.. i'm pretty happy with this.! ^
     
  9. limaj_daas

    limaj_daas Guitar Pro Maniac

    Ur intro was a bit wierd because being the old 70's thing it is, it's based largely on the pentatonic scale. This here's my transcription of the intro... i think it sounds pretty nice.

    t=100

    PM PM
    E||-----------------------------|
    B||-----------------------------|
    G||-----------------------------|
    D||--------9\-----------5----5--|
    A||--------7\----5h-7-7----7----|
    E||--0--0-----------------------|

    PM PM
    -------------------------------|
    -------------------------------|
    -------------------------------|
    --------9\---------------------|
    --------7\------7p-5------5----|
    --0--0---------------7p-5---5--|

    PM PM
    -----------------------------|
    -----------------------------|
    -----------------------------|
    --------9\-----------5----5--|
    --------7\----5h-7-7----7----|
    --0--0-----------------------|

    PM PM
    -----------------------------|------||
    -----------------------------|------||
    -----------------------------|------||
    --------9\--x-x-x------------|------||
    --------7\--x-x-x-5--6--7\---|------||
    --0--0------------3--4--5\---|------||

    tell me how it is...
     
  10. maaani

    maaani New Member

    Excellent ..... awsum limaj ... 100% great..

    great ... graet work....... Limaj i always said u r a very cool guitarist ... and its true .. u r really very very very cool guitarist... :rock: :rock: :rock: :rock:
     
  11. Quadrophenia

    Quadrophenia New Member

    well done!!..well spotted :)) u rock!:cool:
     
  12. limaj_daas

    limaj_daas Guitar Pro Maniac

    need the solo tabbd out?
     
  13. Quadrophenia

    Quadrophenia New Member

    thats adventurous.! if u can that'd be great. could you double check the chords i figured out? thatd be cool. if its a popular demand (the solo) then go ahead. else if ure doing it jsut for me. then if u got time then go ahead :)) thanx once again ure a star!
     

Share This Page