Aag Ke Tarah (by Aaroh ) Chords+tabs+audio

Discussion in 'Pakistani Guitar Tabs - Submit or Request' started by Mohsin shahid, Sep 17, 2005.

  1. Mohsin shahid

    Mohsin shahid New Member

    here is the cover


    http://www.soundclick.com/bands/pagemusic.cfm?bandID=391965

    E----0---0-------------------------------------
    B------4---4------------------------------------
    G-------------4--------------------------------
    D---------------------------------------------
    A---------------------------------------------
    E---------------------------------------------




    E-----0----0-----------------------------------
    B---7----7---------3-2-3-2--------------------------
    G-------------6---------------2-2H4----------------
    D---------------------------------------------
    A---------------------------------------------
    E---------------------------------------------



    NOW THE SONG GOES

    B F#M Em B F#m

    B
    MUJH KO JIS KE TALASH HAI


    F#M
    JANAY US KO KIS KE AAS HAI

    Em
    JALTA HAI MERA DIL

    A----------B-----------
    BASS AAG KE TARAH


    B
    NA KOI HUM SAFAR HAI

    F#M
    NA KOI RAZDA HAI


    Em
    JALTA HAI MERA DIL



    A-------B----------
    BAS AAG KE TARAH


    B------A---G


    G-----A-----------------B----------
    ZINDAGI KAY HAZAR PEHLO HAI



    B---------A---G



    G-------------A--------------B--------
    DIL MEIN BHI USKI YAAD BAQI HAI


    Em------F#M---------------------
    ZARA DIL PAY HAATH RAKH KAR

    A-------------B---------------------
    MERAY HAMNAASHI BAATA DAY


    Em------F#M---------------------
    ZARA DIL PAY HAATH RAKH KAR

    A-------------B---------------------
    MERAY HAMNAASHI BAATA DAY

    Em--------------------------
    TUJHE KIA DIA JAHAN NAY


    A------------B-----------------
    MUJHE KIA MILA JAHAN SAY



    Em--------------------------
    TUJHE KIA MILA JAHAN SAY


    A------------B-----------------
    MUJHE KIA MILA JAHAN SAY


    G---------A-----------------------B---------
    UDAS ANKHON MEIN US KA CHERA HAI



    B--A---G

    G---------A--------------------B--------
    DIL MEIN BHI US KI YAAD BAQI HAI


    Em---------F#M----------------
    ZARA DIL PAY HAATH RAK KAR

    A-----------------B----------
    MRAY HAMNASHI BATA DAY


    AND SOO ON ....
     
  2. nadish

    nadish Active Member

    Gud work Mohsin but there are still some errors in ur Lyrics :)
     
  3. Mohsin shahid

    Mohsin shahid New Member

    lol yeh i know i am weak at picking up the lyrics :D
     
  4. nadish

    nadish Active Member

    Doesn't matter brother, I was just joking :)
     
  5. Lahori_rocker

    Lahori_rocker Guitar God left IGT

    good one mohsin but i m waiting for audio
     
  6. Mohsin shahid

    Mohsin shahid New Member

    guys the cover is on now u can listen to it
     

Share This Page