Aadat Bar Chords

Discussion in 'Pakistani Guitar Tabs - Submit or Request' started by asadqq, Sep 10, 2005.

  1. asadqq

    asadqq New Member

    The whole song is on these three bar chords its great do reply

    e-----------5---------------------------|
    b-----------5--6------------------------|
    g-----------5-----7---------------------|
    d-----------5-----7---------------------|
    a-----------5---------------------------|
    E-----------5---------------------------|


    e--------------------8------------------|
    b--------------------8------------------|
    g--------------------8--9---------------|
    d--------------------8---10-------------|
    a--------------------8---10-------------|
    E--------------------8------------------|


    e-------------6-------------------------|
    b-------------6-------------------------|
    g-------------6---7---------------------|
    d-------------6------8------------------|
    a-------------6------8------------------|
    E-------------6-------------------------|

    e--------------------8------------------|
    b--------------------8------------------|
    g--------------------8--9---------------|
    d--------------------8---10-------------|
    a--------------------8---10-------------|
    E--------------------8------------------|
     
  2. Quadrophenia

    Quadrophenia New Member

    WRONG!...search the forums before u post :mad:..trust me this song u will FIND!!!!!!!
     
  3. Lahori_rocker

    Lahori_rocker Guitar God left IGT

    all wrong baby dont mind........one day u will be great guitarist
     
  4. J.J

    J.J The Guitar God

    wrong...nice try anyway
     
  5. jim4u18

    jim4u18 New Member

    well the chords transposed but position r wrong the position u have posted is of higher version actuall chords r c#m b a b ur chords r dm c Bb c which is a transposed vesion tht too the postion u have posted is very high according to the song well try
    ......e a d g b e
    dm(x 5 7 7 6 5)
    c (x 3 5 5 5 3)
    Bb(x 1 3 3 3 1)
     
  6. Orange Guitar

    Orange Guitar IGT's ALLROUNDER

    search the forum...i have posted the tabs!!!!!!!!!!
     
  7. shak

    shak Harrr!

    its barre not bar
     
  8. asadqq

    asadqq New Member

    RIght

    trust me these are right i think you are havin some trouble with the strumming its played after "Najane kabse ..... " and orange is write that its in a higher pitch its because ma guitars on halftone lowered d but these chords are right
     
  9. asadqq

    asadqq New Member

    sorry

    jim4u18 said that its on higher pitch not orange
     
  10. nadish

    nadish Active Member

    jim's chords are much better than asad...
     
  11. har1s

    har1s <b>Untitled</b>

    asadqq... do 1 thing...play ur chords along with the song.... and play these chords along with the song...n see the difference for urself


    C# <x46644>
    B <x24442>
    A <x02220>
     
  12. Orange Guitar

    Orange Guitar IGT's ALLROUNDER

    download the file.............u guyz are crazy....these tabs are on standard tuning!
     

    Attached Files:

  13. ssslayer

    ssslayer Banned

    whoa !!!

    whats all the fight going on for ? chords? for aadat ... LOL
    such a simple song just goes like:
    C#m -> B -> A ...

    is there anything left to be discussed upon?

    and regardgin the fact that chords are transposed or not ...
    asadqq plays it like:
    Dm -> C -> Bb

    which is the same thing only transposed a fret higher ...
    so in this case either his guitar is tuned lower by 1/2 step ... or mine higher by 1/2 ...

    in any case it is bullshit fighting for ... coz we dont know the fuckers in JAL may have down tuned their guitar for playing this ...

    so cut all the CRAP ...

    HENCE: asadqq your chords are correct ...
     
  14. shak

    shak Harrr!

    the maestro has spoken .. i didnt wanted to ruin the little fight .. thought they would figure this out themselves and then we will all sit and laugh ..u spoiled the fun ssss
     
  15. Lahori_rocker

    Lahori_rocker Guitar God left IGT

    hey orange chords r 100% correct nd Dm C Bb sounds sharp than C#m B A B thats how if we figure out Dm C Bb this become Dm(557765) Cmajor(335553) nd Bb (113331)
     
  16. rizaaj

    rizaaj Forum Leader

    ^^ aankh khul gayi?

    chalo good morning
     
  17. ssslayer

    ssslayer Banned

    ^^^ ;)

    see shahrukh ... u cant help it ...
    KIDS will remain KIDS ... and anyway am turning anti spammer now ;) ...

    i felt that this thread is becoming a breeding ground for spamming ...

    but i can see my efforts to curb it has been undone by the KIDS here ... infact this reminds me of the "Kindergarten COP" ... :grin:
     
  18. Orange Guitar

    Orange Guitar IGT's ALLROUNDER

    @sss: wts the matter with u???????????? chords are posted....evry1 is happy....but u r still......!!!???
     
  19. ssslayer

    ssslayer Banned

    ^ no comments other than there is no perfect chords ...

    and the n00b here had posted "correct" sounding chords ... but still, the ppl here on this thread mocked him ... thats it ...

    anyway peace now ...
     
  20. rizaaj

    rizaaj Forum Leader

    @sss ... u in guitar forums.. *shocked* long time no see .. i mean in guitar forums :p:
     

Share This Page