A Really Big Request...

Discussion in 'Pakistani Guitar Tabs - Submit or Request' started by BIG_EVIL, Feb 24, 2005.

  1. BIG_EVIL

    BIG_EVIL Guitaring Machine

    PLZ GUYS....
    TAB THE SONG "BHAN CHOD"....IVE BEEN WORKING ON IT FOR A MONTH BUT I STILL DONT GET IT... :cen:
     
  2. rizaaj

    rizaaj Forum Leader

    i had this saved on my pc....

    Code:
    Ali Hamza - BC
    
    Standard Tuning (EADGBe)
    
    INTRO:
    
    -----3--xxxx-----3--xxxx----------------xxxx-----3--xxxx-----3--xxxx--------xx-----------
    -----3--xxxx-----3--xxxx----------------xxxx-----3--xxxx-----3--xxxx--------xx-----------
    -----4--xxxx-----4--xxxx----------------xxxx-----4--xxxx-----4--xxxx--------xx-----------
    --5-----xxxx--5-----xxxx--3--3----8--8--xxxx--5-----xxxx--5-----xxxx--7--7--xx--3--3--3--
    --5-----xxxx--5-----xxxx--3--3----8--8--xxxx--5-----xxxx--5-----xxxx--7--7--xx--3--3--3--
    --3-----xxxx--3-----xxxx--1--1----6--6--xxxx--3-----xxxx--3-----xxxx--5--5--xx--1--1--1--
    
    
    Riff 1:
    
    -----------------------------------------------------------------------
    -----------------------------------------------------------------------
    -----------------------------------------------------------------------
    --5--x--x--5--x--x--3--x--8--8--x--x--5--x--x--5--x--x--7--x--3--3-----
    --5--x--x--5--x--x--3--x--8--8--x--x--5--x--x--5--x--x--7--x--3--3-----
    --3--x--x--3--x--x--1--x--6--6--x--x--3--x--x--3--x--x--5--x--1--1-----
    
    -----------------------------------------------------------------------
    -----------------------------------------------------------------------
    -----------------------------------------------------------------------
    --5--x--x--5--x--x--3--x--8--8--x--x--5--x--x--5--5--x--x--5--x--x--5--
    --5--x--x--5--x--x--3--x--8--8--x--x--5--x--x--5--5--x--x--5--x--x--5--
    --3--x--x--3--x--x--1--x--6--6--x--x--3--x--x--3--3--x--x--3--x--x--3--
    
    Lyrics Sang Under Riff 1:
    
    Bhainchod...ama Bhainchod...Mori Akhiyon Ke Taaray Bolay
    Bhainchod...ama Bhainchod...Nadiya Kinaaray Bolay
    Bhainchod...ama Bhainchod...Mori Akhiyon Ke Taaray Bolay
    Bhainchoooooooooood
    
    Riff 2:
    
    -----------------------------------------------------------------------
    -----------------------------------------------------------------------
    ----------------------------------5--x--5--5--xx--7--x--7--7--0--------
    --5--x--5--5--xx--3--x--3--3--xx--5--x--5--5--xx--7--x--7--7--0--------
    --5--x--5--5--xx--3--x--3--3--xx--3--x--3--3--xx--5--x--5--5--0--------
    --3--x--3--3--xx--1--x--1--1--xx------------------------------0--------
    
    -----------------------------------------------------------------------
    -----------------------------------------------------------------------
    ----------------------------------5--x--5--5--xx--7--7--7--7--7--7--7--  Repeat the -7- as many
    --5--x--5--5--xx--3--x--3--3--xx--5--x--5--5--xx--7--7--7--7--7--7--7--		    -7-	times as
    --5--x--5--5--xx--3--x--3--3--xx--3--x--3--3--xx--5--5--5--5--5--5--5--		    -5- required
    --3--x--3--3--xx--1--x--1--1--xx---------------------------------------
    
    Lyrics under Riff 2:
    
    Mori Nindariya Mein Aa Ke...Moray Sapnon Ko Saja Ke
    Moray Sapnon Ko Saja Ke...Mayeka Apna Bana Ke
    Hmmmm...Mayeka Doli Mein Bitha Kayyyhayy
    Mayeko Dulhaniya Banwa Ke
    Mayeki Bindiya Laga Kay-y-y-y-y-y-y-y-y
    
    Come To Riff 1 Again :
    
    Bhainchod...ama Bhainchod...Mori Akhiyon Ke Taaray Bolay
    Bhainchod...ama Bhainchod...Nadiya Kinaaray Bolay
    Bhainchod...ama Bhainchod...Mori Akhiyon Ke Taaray Bolay
    Bhainchoooooooooood
    
    Riff 3: (Pretty Much the Same as Riff 2 with minor alteration at the end)
    
    -----------------------------------------------------------------
    -----------------------------------------------------------------
    ----------------------------------5--x--5--5--xx--7--x--7--7--0--
    --5--x--5--5--xx--3--x--3--3--xx--5--x--5--5--xx--7--x--7--7--0--
    --5--x--5--5--xx--3--x--3--3--xx--3--x--3--3--xx--5--x--5--5--0--
    --3--x--3--3--xx--1--x--1--1--xx------------------------------0--
    
    -----------------------------------------------------------------
    -----------------------------------------------------------------
    ----------------------------------5--x--5--5--xx--7--x--7--7-----
    --5--x--5--5--xx--3--x--3--3--xx--5--x--5--5--xx--7--x--7--7-----
    --5--x--5--5--xx--3--x--3--3--xx--3--x--3--3--xx--5--x--5--5-----
    --3--x--3--3--xx--1--x--1--1--xx---------------------------------
    
    -----------------------------------------------------------------
    -----------------------------------------------------------------
    --0--0--0--------------------------------------------------------
    --2--2--2--3--3--3-----------------------------------------------
    --2--2--2--3--3--3-----------------------------------------------
    --0--0--0--1--1--1-----------------------------------------------
    
    Lrics Under Riff 3:
    
    Tum Bin Mori Nayeya...Doobti Jaaye
    Tum Bin Mori Bayeya...Tooti Jaaye
    Tum Chal Diye Kahan...Haaaan
    
    Come to Riff 1 Again: 
    
    Bhainchod...ama Bhainchod...Mori Akhiyon Ke Taaray Bolay
    Bhainchod...ama Bhainchod...Nadiya Kinaaray Bolay
    Bhainchod...ama Bhainchod...Mori Akhiyon Ke Taaray Bolay
    Bhainchoooooooooood
    
    Start Slowing the tempo as u reach the second last verse
    	-5-	
    End on  -5-
    	-3-
    
    
     
  3. zohaib

    zohaib Shredder

    pathetic !
     
  4. invincible2k

    invincible2k New Member

    Play G chord first 3 strings(bass strings and then the last three strings)
    play muted strings a few times then play F chord and then play A...that's the song.

    G 3 5 5 4 3 3
    F 1 3 3 2 1 1
    A 5 7 7 6 5 5
    it's very easy just listen to the song and play it....cool song by the way.
     
  5. nadish

    nadish Active Member

    Which type of Title is this??? Bhan Chod. Big Evil u must reconsider on this word and try 2 correct the spellings of this song..

    thanx
     
  6. hidden_spectre

    hidden_spectre New Member

    haaahaa, don't ever think of correcting the spellings...lolz man
     
  7. BIG_EVIL

    BIG_EVIL Guitaring Machine

    thanx rizaaj and invincible2k
     
  8. rizaaj

    rizaaj Forum Leader

    ure welcome dude...
     
  9. RadioActive

    RadioActive New Member

    lolx at the title of track
     

Share This Page