A challenge, but also a humble request

Discussion in 'Hindi Guitar Tabs - Submit or Request' started by basit_jaaaani, Jun 9, 2006.

  1. basit_jaaaani

    basit_jaaaani I'm gUnnin' fer uuu

    well hey guys i've got somethin tough to throw at ya
    i need TABS for the MUSICAL part from Mohabatein the movie
    by the musical part. To listen to it visit this link

    http://66.45.233.12/Mohabbatein_Love_Theme_(instrumental)Mohabbatein.mp3

    after the guitar part a SITAR starts, if u guys can tab the sitar part for a the guitar it'd be off da hook
    i've tried the first part of the sitar, its like this

    B-5-6-5-6-5-3-5-6-5-6

    and so on
    but thats all i could figure out
    the pro's shouldn't have a problem with this
    thanks in advance
    happy jammin
     
  2. pnainani03

    pnainani03 Request and I'll tab

    heya!

    goes something like this

    E---------------------------------
    B------------------3-1-------1------
    G--0-2-3-2-3-2-0--------0-2---2---0
    D----------------------3----------3-- x2

    and then

    E------------------1--------------------
    B--3-3-3-4-3-1--1-1----1-1-1-3-1-----
    G---------------3------------------3-2-3

    just ask me when you want the rest.

    Paras N. :)
     
  3. pnainani03

    pnainani03 Request and I'll tab

    sitar part

    E-------------------------------1-3-5-6/7/8/7/6/5/4/3
    B-3-4-3-4-3-1--3-4-3-4-3-1-3------------------------

    E--1-3-5-6-5-3-1-3-5-6-5-3-1----1------
    B------------------------------- -4----4-3(/2/3)
     
  4. basit_jaaaani

    basit_jaaaani I'm gUnnin' fer uuu

    dats great buddy thanks a bumch

    happy jammin
     
  5. pnainani03

    pnainani03 Request and I'll tab

    no problems :)

    Paras N.
     
  6. sayan91

    sayan91 New Member

    hey i am new to guitar and read the thread on reading the tabs but cudnt get what is that x on tabs, i know its not to be asked in this thread but still help me ppl
    thanx
     
  7. basit_jaaaani

    basit_jaaaani I'm gUnnin' fer uuu

    sayan buddy
    if ur talking about chords
    X means that certain string is NOT to be played
     

Share This Page