Hi Guys. I am very new to guitar playing and most of the times i use the stuff on this site to practice the leads.

Here is m effort to learn on my own and i tried creating these Tabs for my two favourite tunes.

Posting for you all to know that how far i pitched them correctly. and any corrections.

Dilwale Dulhaniya le jayenge--------------------------------

Tujhe dekha to ye jaana sanam
b 7-7-7---------------------------
e -------9-7-9-5-7--10--9--9 99999

pyar hota hai deewana sanam
b 7-7-7---------------------------
e -------9-7-9-5-7--5--4--4 44444

ab yaha se kaha jaaye hum
b --7-9-5-7-9-5--7--------------
e -------------------5--44 44444

teri baahon mein mar jye hum
b --7-9-5-7-9-5----------------
e ----------------5---4--222222

Lakhshya Theme ----------------

e ---7-----5-4--7 --------- 7--9-10-9-7-5--7-9--7--------