Follow Us On Follow us on Facebook Follow us on Twitter Watch us on YouTube
Register
Page 1 of 2 12 LastLast
Results 1 to 15 of 17
  1. #1
    parasdua is offline Newbie
    Join Date
    Jun 2007
    Posts
    28

    teri yaadein( love story) guitar tab

    G Em7 Cadd9
    e ------3--------------3-------3-------------3----------3-------------3

    B ------3---------3----3-------3---------3---3----------3---------3--3

    G ------0------0---------------0------0-----------------0------0------

    D ---------------------------------------------------------------------

    A --------------------------------------------------3-------3----------

    E --3------3---------------0-------0-----------------------------------

    Dsus4
    e -----3------------2---2p3

    B -----3--------3---3---3-

    G -----2-----2------------

    D --0-----0---------------

    A ------------------------

    E ------------------------

  2. #2
    swaraj's Avatar
    swaraj is offline Newbie
    Join Date
    Jan 2007
    Posts
    14

    Smile

    first of all thank u i am not getting how to play it can u tell me how to play ot corectly.

  3. #3
    paranoid13rohan's Avatar
    paranoid13rohan is offline .: iNDiaN iDioT 3.0 :.
    Join Date
    Nov 2005
    Location
    Navi Mumbai, India
    Posts
    1,320
    ^^ are these the melody tabs or chord picking tabs?

    i'm bad at guitar jargon. i hope you you understand what i'm asking.
    Rohan Dasgupta.
    Vocals and Guitars, Concrete Junglee.
    www.myspace.com/concretejungleemusic

  4. #4
    parasdua is offline Newbie
    Join Date
    Jun 2007
    Posts
    28
    hey m not sure these r correct, though d chords r rite!! do reply if u find sumthin gud!!

  5. #5
    parasdua is offline Newbie
    Join Date
    Jun 2007
    Posts
    28

    mistake

    oops, sorry, its 2h3, not 2p3.

  6. #6
    prateek420's Avatar
    prateek420 is offline Newbie
    Join Date
    Jun 2007
    Posts
    36

    Wink

    These r melody tabs buddy...
    ....i tried them and found them simply MARVELOUS!!!

    Great job dude!!!!!!

    Check out the song's video:

    http://www.youtube.com/watch?v=MTCxQ1elMpk
    --
    Cheers,
    PrAtZY

    "Being right is highly overrated.Even a stopped clock is right twice a day."

  7. #7
    abhishekgoel5 is offline Newbie
    Join Date
    Jun 2007
    Posts
    6

    Not getin'

    Hey I'm new to igt can anyone pls help me abt how to play these tabs...

  8. #8
    wanalearn1908 is offline Newbie
    Join Date
    Sep 2007
    Posts
    1

    Red face hellppp

    hey..thank you sooooo much 4 posting this song!!!..i have been luking 4 it since a loong time!!!
    ok..problem is..i haaate chords!!..n suck @ it 2!!!
    bt this is 1 song, im willing 2 work on
    so can u please help me n tell how 2 play them...please..it wuld be a gr8888 help..im desperate to play this song

  9. #9
    maniche is offline Newbie
    Join Date
    Sep 2007
    Posts
    8

    thanks yaar

    i was searching the chords of this song for a long time but
    i am not able to understand it .can you post me the lyrics of this song with chords please

  10. #10
    sweetbla is offline Newbie
    Join Date
    Jul 2006
    Posts
    2

    Thumbs up enjoy....dese r d correct 1's

    Quote Originally Posted by maniche
    i was searching the chords of this song for a long time but
    i am not able to understand it .can you post me the lyrics of this song with chords please
    e ------3--------------3-------3-------------3----------3-------------3

    B ------3---------3----3-------5---------5---5----------1---------1--1

    G -------------0----------------------0------------------------0------

    D ---------------------------------------------------------------------

    A --------------------------------------------------3-------3----------

    E --3------3---------------0-------0-----------------------------------

    Dsus4
    e -----2------------2---2h3

    B -----3--------3---3---3-

    G -----------2------------

    D --0-----0---------------

    A ------------------------

    E ------------------------

  11. #11
    chatty_arko's Avatar
    chatty_arko is offline Tabber
    Join Date
    May 2006
    Location
    pune
    Posts
    253
    plz post d lyrics
    broken heart made my music more lovely n helped me win prizes

  12. #12
    parasdua is offline Newbie
    Join Date
    Jun 2007
    Posts
    28
    e-----3-------3|--3-------3|---3-------3-|---3---------3-
    B-----3-----3--|--3-----3--|---3-----3---|---3-------3--
    G---------0----|------0----|-------0-----|---------0----
    D---0---0------|2---2------|-------------|-0----0-------
    A--------------|-----------|-3---3-------|--------------
    E--------------|------------|------------|--------------

  13. #13
    vivek.gaur0816's Avatar
    vivek.gaur0816 is offline VivekLoveRock....
    Join Date
    Sep 2008
    Location
    Ajmer/Delhi
    Posts
    258

    Arrow Chords - Teri Yaadein

    I guess u r new to guitar playin..nywayz here are simple relatively chords (without picking pattern) NJOY STRUMMING

    Artist- Dhunn
    Song- Teri yaadein
    Album- OST Love Story (TV)
    Level of difficulty- 6/10
    Song rating- 7/10


    Intro:

    G Em C D

    G Em C D
    Teri yaadein, mulaqatein, wo raatein, aur baatein;
    G Em C D
    Teri saanse, wo baahein, ub mujhko yaad aaye.
    G Em C
    Tere bina mera jiya, sataaye kyu piya,
    G D G Em C D
    yaadon ne teri mujhpe, ye zaadu kiya re.


    G Em C D
    Teri saanse, wo baahein, ub mujhko yaad aaye.
    G Em C D
    Wo aadao, ki ghataaye, mere dil ko chhuu jaaye.
    G Em
    Pyari, ye duniya saari maine, hai tujhpe wari,
    C G D C D Em G D
    dilne, mere dilne tujhse yaari, ki baazi haari re.

    C D Em G D
    Mere khayalo mei, (khayalo mei ....), bus tuum.
    C D Em G D
    Meri Nigaho mei, (nigaho mei .....), bus tuum.
    C D Em G D C D
    Waapas aa jao... mere paas, tum sadaa, waapas aa jao.
    Em G D
    Mere paas, tum sadaa ....

    G Em C D
    Suuna, mera jahan, bhuula mai hu kaha, jana hai janeja, tera rahu...

    C D Em G D (Chords keep repeating)

    Piyaaaaaa .................... (piyaaa.....) .........
    wapas aa jao.
    Mere paas, tum sadaa, wapas aa jao.
    Mere paas, tum sadaa -
    Piya tera ziya .... (Piya tera ziya...) .....
    Piya tera ziya .... (Piya tera ziya...)
    Tuuuu hai kahaaaa ....?

    G Em
    Tera karu intezar, tu mere dil ka karar,
    C G D
    Itna hai aitbar, maanunga naa mai bhi haar.

    G Em C D G
    Sometimes I wish life had subtitles (and in a big font)!!

    [SIGPIC][/SIGPIC]

  14. #14
    Join Date
    Jun 2007
    Posts
    2
    hey...
    thanks vivek for the chords....
    playing these wont be difficult....

  15. #15
    Theon is offline Newbie
    Join Date
    Aug 2009
    Posts
    24

    Wink

    thanx a ton for posting this song! :-)
    Now my gal happy = Me Happy! :P
    ( ̐ о̐) ʅᶬʃ ˴˔˔ MAU

 

 
Page 1 of 2 12 LastLast

Similar Threads

  1. chords for teri yaadein of love story soap in sab tv
    By muzicluv in forum Beginner's Q&A Forum
    Replies: 0
    Last Post: 06-10-2008, 02:47 PM
  2. teri yaadein love story
    By jooy in forum Hindi Guitar Tabs - Submit or Request
    Replies: 1
    Last Post: 04-27-2008, 03:34 PM
  3. guitar tabs of teri yaadein from love story
    By nikhil23 in forum Hindi Guitar Tabs - Submit or Request
    Replies: 2
    Last Post: 10-21-2007, 08:55 PM
  4. teri yaadein in serial love story
    By poojabagwe in forum Hindi Guitar Tabs - Submit or Request
    Replies: 3
    Last Post: 07-08-2007, 05:31 PM
  5. req : chords of teri yaadein which comes in the serial love story
    By itsaidtya2000 in forum Hindi Guitar Tabs - Submit or Request
    Replies: 7
    Last Post: 07-08-2007, 05:30 PM

Bookmarks

Posting Permissions

  • You may not post new threads
  • You may not post replies
  • You may not post attachments
  • You may not edit your posts
  •  
Single Sign On provided by vBSSO