Follow Us On Follow us on Facebook Follow us on Twitter Watch us on YouTube
Register
Results 1 to 6 of 6
  1. #1
    amit82cse's Avatar
    amit82cse is offline Silent observeR
    Join Date
    May 2005
    Location
    Redmond, WA
    Posts
    1,424

    Tabs Submission : Jeena Yahan Marna Yahan - MERA NAAM JOKER

    Couldn't find the full song to listen so just the intro...

    [FONT=Courier New]
    Jeena Yahan Marna Yahan, Iske Siva Jaana Kahan
    -----------------------------------------------------------
    -----------------------------------------------------------
    -----------------------------------------------------------
    ---7-9-10---10-9-6-7-9-----6-7-9---10-9-6-7----------------
    -7-----------------------7---------------------------------
    -----------------------------------------------------------

    Ji Chahe Jab Humko Awaaz Do
    -----------------------------------------------------------
    -----------------------------------------------------------
    -9-10-7-9-9--9-9-10-7-9------------------------------------
    -----------------------------------------------------------
    -----------------------------------------------------------
    -----------------------------------------------------------

    Hum Hain Wahin Hum Thhe Jahan,
    -----------------------------------------------------------
    -----------------------------------------------------------
    -9-7----9-7------------------------------------------------
    -----10-------10-9-6--9-7----------------------------------
    -----------------------------------------------------------
    -----------------------------------------------------------

    Apne Yahin Dono Jahan
    Iske Siva Jana Kahan
    Jeena Yahan ......

  2. #2
    Join Date
    Jul 2005
    Location
    Bahrain
    Posts
    72
    excellent//.sounds perfet
    [url=http://www.imageshack.us][img]http://img329.imageshack.us/img329/7854/defsig7fx5oc.jpg[/img][/url]

  3. #3
    Join Date
    Jun 2005
    Posts
    25
    great amit!!!
    Tommorrow might never be!!!

  4. #4
    astroguru26's Avatar
    astroguru26 is offline Tabber
    Join Date
    May 2005
    Location
    houston , texas
    Posts
    378
    lovely........tabs..keep the music flowing out of heart.............bravo

  5. #5
    AhsenBhai is offline Newbie
    Join Date
    Aug 2007
    Posts
    42
    Is the first line of the song on the D String or G string?

  6. #6
    zivango is offline Newbie
    Join Date
    Mar 2008
    Posts
    1
    thanks dude, I really love this song...could you please tab the whole song i am a real beginner/amateur.

 

 

Similar Threads

  1. Mera Naam Joker - Jeena Yahan Marna Yahan
    By Zeus in forum Hindi Guitar Tabs - Submit or Request
    Replies: 13
    Last Post: 04-23-2011, 03:06 PM
  2. Chords: Jeena Yaha (Mera Naam Joker)
    By sDEVs in forum Hindi Guitar Tabs - Submit or Request
    Replies: 2
    Last Post: 08-19-2006, 06:33 PM
  3. Jeena yahan marna yahan - RK classic
    By urs_nir in forum Hindi Guitar Tabs - Submit or Request
    Replies: 0
    Last Post: 09-25-2005, 08:06 AM
  4. Req - Main Yahan Honn Yahan from the Movie Veer Zara
    By KabirA in forum Hindi Guitar Tabs - Submit or Request
    Replies: 1
    Last Post: 07-30-2005, 10:06 PM
  5. Tabs Submission : Jaane kahaa gaye wo din - Mera Naam Joker
    By amit82cse in forum Hindi Guitar Tabs - Submit or Request
    Replies: 5
    Last Post: 07-04-2005, 09:45 PM

Bookmarks

Posting Permissions

  • You may not post new threads
  • You may not post replies
  • You may not post attachments
  • You may not edit your posts
  •  
Single Sign On provided by vBSSO