Follow Us On Follow us on Facebook Follow us on Twitter Watch us on YouTube
Register
Page 1 of 3 123 LastLast
Results 1 to 15 of 34
  1. #1
    xeon is offline Newbie
    Join Date
    Oct 2004
    Location
    Huddersfield, UK
    Posts
    4

    Arrow Tabs for DDLJ - Tujhe Dekha To Yeh Jana Sanam

    Tabs for Tujhe Dekha To Yeh Jana Sanam

    nice and easy tabs on a single string


    1|----------------------------
    2|---3-3-5-10-8-10-6-8-10-10
    3|----------------------------
    4|----------------------------
    5|----------------------------
    6|----------------------------
    Tujhe Dekha To Yeh Jana Sanam


    1|----------------------------
    2|---3-5-10-8-10-6-8-6-5----
    3|----------------------------
    4|----------------------------
    5|----------------------------
    6|----------------------------
    Pyar Hota Hai Dewana Sanam


    1|----------------------------
    2|---3-5-1-3-5-1-3-5-5-------
    3|-----------------------------
    4|----------------------------
    5|-----------------------------
    6|-----------------------------
    Ab Yahan Se Kahan Jayain Hum


    1|----------------------------
    2|---5-5-6-10-10-8-6-5-3----
    3|----------------------------
    4|----------------------------
    5|----------------------------
    6|----------------------------
    Teri Bahon Mai Mar Jayain Hum

    will appreciate your feedback

  2. #2
    rizaaj's Avatar
    rizaaj is offline Forum Leader
    Join Date
    Sep 2004
    Location
    Sweet Middle East
    Posts
    1,294
    Nice Work Dude ... . Keep it goin

  3. #3
    xeon is offline Newbie
    Join Date
    Oct 2004
    Location
    Huddersfield, UK
    Posts
    4

    Arrow

    thanx mate...anyone knows the bits? coz i only was able to work out this much...im sure u big time guitarist know how-to! :P

  4. #4
    gautam_njoy's Avatar
    gautam_njoy is offline Guitarist
    Join Date
    Dec 2003
    Location
    India
    Posts
    174

    DDLJ tab

    hey dude...
    I got this from some site.. i dont knw..
    BUt i tab this same song this way and its really damn easy... its again single string but its really good and it has the further part too... juz tab it and njoy and tell me how it is...

    E-|--0--0--0--7------5--7------3--5----8--7---------|
    B-|-------------------------------------------------|
    G-|-------------------------------------------------|
    e e e b a b g a c b
    Tujhe de kha to yeh jaana sanam

    E-|-0--0---0---7-----5---7----3--5----3--2----------|
    B-|-------------------------------------------------|
    G-|-------------------------------------------------|
    e e e b a b g a g f#
    Pyaar ho ta hai dee wa na sa nam

    E-|-0---2-------0---2------0---3----2---------------|
    B-|--------3-----------3----------------------------|
    G-|-------------------------------------------------|
    e f# d e f# d e g f#
    Ab ya han se ka han jaa yein hum


    E-|-0--2-------0---2--------2---3----0--------------|
    B-|--------3------------3---------------------------|
    G-|-------------------------------------------------|
    e f# d e f# d e g f#
    Te ri baa hon mein mar jaa yein hum

    --------------------------------------------------------------------------------

    E-|-----------12---------------12-------------------|
    B-|--12--13------12---12--13------12----------------|
    G-|-------------------------------------------------|
    b c e b b c e b
    Aan khen me ri , sap ne te re


    E-|-------------------------------------------------|
    B-|--12--10---12-13----10---8--13--12---------------|
    G-|-------------------------------------------------|
    b a b c a g c b
    Dil me ra , yaadein te ri

    mera hai kya, Sab kuch tera
    Jaan teri, saansein teri
    --------------------------------------------------------------------------------
    E-|-------------------------------------------------|
    B-|-12-10-12----8-----7----5---12---10--12--7--8-10-|
    G-|-------------------------------------------------|
    b a b g f# e b a b f# g a
    Me ri aan khon mein an su , te re aa ga ye

    E-|----------10-----10--8----10----8-----7-5-3-2--0-|
    B-|-10-10-10----------------------------------------|
    G-|-------------------------------------------------|
    a a a d d c d c b a g f# e
    Muskuraane , la ge saaaaarey gham


    E-|--0--0--0--7------5--7------3--5----8--7---------|
    B-|-------------------------------------------------|
    G-|-------------------------------------------------|
    e e e b a b g a c b
    Tujhe de kha to yeh jaana sanam

    --------------------------------------------------------------------------------

    Yeh dil kahin lagta nahin
    Kya kahoon, main kya karoon

    Haan, tu saamne, Baithi rahe
    Main tujhe dekha karoon

    Tune aawaaz di, dekh main aa gayi
    Pyaar se hai badi kya kasam

    Tujhe dekha to yeh jaana sanam
    Pyaar hota hai deewana sanam
    Ab yahan se kahan jaaye hum
    Teri baahon mein mar jaaye hum

    i end the tabs this way....

    E-|--0--0--0--7------5--7------3--5----10--7---------|
    B-|-------------------------------------------------|
    G-|-------------------------------------------------|
    e e e b a b g a c b
    Tujhe de kha to yeh jaana sanam

    its my creation juz playin i found it and i like it so i use it.. juz try and lemme know how is it...
    Feedback wanted!!!

  5. #5
    gautam_njoy's Avatar
    gautam_njoy is offline Guitarist
    Join Date
    Dec 2003
    Location
    India
    Posts
    174
    The end part specially the last 3 tabbings.. play it real slow.... it gives a better effect.. juz try and u wil realise it on ur own and create somehtin of ur own.. u feel better doing that.. newaz try and lemme knw..

  6. #6
    dancepodium is offline Newbie
    Join Date
    Oct 2004
    Posts
    9

    Thanks Gautam..

    works really well except the last two lines sound similar to me

    Ab yanha se kanha jayein hum

    E-|-0--2-------0---2--------0---3----2--------------|
    B-|--------3------------3---------------------------|
    G-|-------------------------------------------------|
    e f# d e f# d e g f#
    Te ri baa hon mein mar jaa yein hum


    I see the gap that you've given but I thought that instead of last '0/e' at the top it should be something else.

  7. #7
    gautam_njoy's Avatar
    gautam_njoy is offline Guitarist
    Join Date
    Dec 2003
    Location
    India
    Posts
    174
    oh boy!!!! i m so sorry.. it got repeated .....
    E-|-0--2-------0---2--------2---3----0--------------|
    B-|--------3------------3---------------------------|
    G-|-------------------------------------------------|
    e f# d e f# d e g f#
    Te ri baa hon mein mar jaa yein hum

    Thats perfect...
    it was by mistake... thnx for pointing that out dancepodium....
    Newaz juz try this out and lemme know... and thnx for appreciating it.. nice of u..
    Try this and lemme know...

  8. #8
    gautam_njoy's Avatar
    gautam_njoy is offline Guitarist
    Join Date
    Dec 2003
    Location
    India
    Posts
    174
    hey dude i have edited them now.. juz chek back.,... cya

  9. #9
    sumit's Avatar
    sumit is offline HaNdS uPPP!!
    Join Date
    May 2004
    Location
    PUNE
    Posts
    346
    good work.....well i ve tabbed it but not the whole song .....thx for the last part
    The most uncommon thing in common people is common sense

  10. #10
    rads16's Avatar
    rads16 is offline Newbie
    Join Date
    May 2005
    Location
    Brighton,UK
    Posts
    9
    hey mun !!!!!!!!!! moi has just started to play the guitar and i tried to play the abo ve .. mannnn it rocks .. makes it so easier for first timers to play .. thanks a million ..
    Life is Short ....Dont make it shorter .. Quit Smoking :-)))))))

  11. #11
    llilmischief is offline Newbie
    Join Date
    Oct 2006
    Posts
    1
    awesome post buddy you rock IGT is the besttttttttttt

    thanx Gautam

  12. #12
    chatty_arko's Avatar
    chatty_arko is offline Tabber
    Join Date
    May 2006
    Location
    pune
    Posts
    253
    nice tabbin
    broken heart made my music more lovely n helped me win prizes

  13. #13
    fisherman is offline Newbie
    Join Date
    Oct 2006
    Posts
    11
    hey!!!
    this is not the way it sounds in the movie.
    i can play any song with a single string but its not worth it!
    __________________________________
    Be carefull i m careless

  14. #14
    Join Date
    Jan 2007
    Posts
    57

    Unhappy REQ: Ruk Ja O Dil Deewane

    guyz,
    can somebody please TAB me Ruk Ja O Dil Deewane from the same movie DDLJ or if there is ALREADY a thread in IGT, can u please fwd it.
    Its really nice tune.
    Awaiting eagerly.....
    -tabbist

  15. #15
    Join Date
    Jan 2007
    Posts
    57

    Thumbs up got the tabs

    hi i was able to find the TABS with the help of Sumant Modak, here they are:

    Ruk Ja O Dil Deewane
    E-5-5-975-57-3
    Poochhoon To Main Zara
    E-5-5-9-7-55--

    Ladki Hai Ya Hai Jaadu
    E-555-975-57-3
    Khushboo Hai Ya Nasha
    E-555-9-7-55--

    Paas Vo Aaye To
    E-5-12-12--10-12-12
    Chhoo Ke Main Dekhoon Zara
    E-357-10-9-77-

    Will try tabbing antara for this song and if found correct post on this thread.

    - DK

 

 
Page 1 of 3 123 LastLast

Similar Threads

  1. Tujhe Dekha to yeh jana sanam my first tabs
    By Black_Chaos in forum Hindi Guitar Tabs - Submit or Request
    Replies: 3
    Last Post: 12-06-2007, 12:41 PM
  2. give me the tabs of tujhe dekha to ye jana from ddlj
    By pawan_net2000 in forum Hindi Guitar Tabs - Submit or Request
    Replies: 0
    Last Post: 08-25-2007, 03:49 PM
  3. tujhe dekha to yeh jana sanam tabs
    By jim4u18 in forum English Guitar Tabs - Submit or Request
    Replies: 3
    Last Post: 04-26-2006, 11:02 PM
  4. keyboard-Tujhe Dekha To Yea Jana Sanam - DDLJ
    By 6string_addict in forum Misc Musical Instruments
    Replies: 12
    Last Post: 10-29-2005, 08:16 PM
  5. Ddlj(tujhe Dekha Tu Yeh Jana Sanam)tabs
    By Mohsin shahid in forum Hindi Guitar Tabs - Submit or Request
    Replies: 0
    Last Post: 08-18-2005, 01:02 AM

Bookmarks

Posting Permissions

  • You may not post new threads
  • You may not post replies
  • You may not post attachments
  • You may not edit your posts
  •  
Single Sign On provided by vBSSO