Follow Us On Follow us on Facebook Follow us on Twitter Watch us on YouTube
Register

View Poll Results: HOW THE TAB SOUNDS

Voters
3. You may not vote on this poll
  • GREAT

    0 0%
  • NICE

    1 33.33%
  • NOT BAD

    1 33.33%
  • BAD

    1 33.33%
Results 1 to 3 of 3
  1. #1
    Join Date
    Jun 2005
    Posts
    17

    Arrow Tabs For Ajeeb Dastaan Hain Yeh

    Hey Enjoy The Tabs For Ajeeb Dastan Hai Yeh

    E -------------5--3--5--3--0
    B----------3--1--
    E---0--


    E--- 5---3---5---3---0
    B ----3----1-----3

    B--3---3
    E--0--
    B --3--1---0
    G --0--2--

    E --5--3--5--3--0--
    B-3--
    G--2--
    E--1--

    B--1-1--3--
    E--1-1-1
    B --3--
    E ---1--

    E--5--3--5--3--0--5--5--3


    Hope U Enjoy This.
    Comment Please

  2. #2
    shantanukr's Avatar
    shantanukr is offline yEh DiL mAanGe m0rE
    Join Date
    Sep 2004
    Location
    Hyderabad
    Posts
    329
    Tabs are good .. But written in messy format .. READ the Tablature guide by Admin and try to write in that manner. It makes easy for all to play ur song .. Well Keep it up ....

  3. #3
    Join Date
    Jun 2005
    Posts
    25
    here try this

    song:ajeeb dastan hain yeh

    E----9-7---9---7----------------------9--7----9---7-------------------------
    B------------------9--7--------9---------------------9---7---------7--------
    G--------------------------9-----------------------------------9------------
    D---------------------------------------------------------------------------

    A jee b daa s tan hai yeh ka haan shu ru ka haan kha tam


    E------------------------------------------9-7-9-7------------------------
    B----9---7---9---7---------------------------------9-7------9-----------
    G--------------------9----8---6--8----------------------9-8-------------
    D---------------------------------------------------------------------------

    yeh man zi len hain ka un si na woh sama jh sa ke na hum


    E------------------------------------------9---7--9--7---5---5--9---7-------
    B-------7--9--10--9--10--7---10---------------------------------------------
    G---8-----------------------------------------------------------------------
    D---------------------------------------------------------------------------

    Yeh ro sh ni ke saa th kyon dhu an u tha chi ra g se


    E---11--11---9--11--9--7--5----7-----------7--7---9--7----------------------
    B-------------------------------------------------------9----7--5------5----
    G------------------------------------------------------------------6--------
    D---------------------------------------------------------------------------

    Yeh Khwa b de kh ti hoon main ki jug pa ri hoon kh wa b se

    urs doesn't sound quite there no offense though inayath_guitar
    Keep trying!!!
    Tommorrow might never be!!!

 

 

Similar Threads

  1. Ajeeb Dastaan Hai Yeh - Chords in F
    By Bandbaaja in forum Hindi Guitar Tabs - Submit or Request
    Replies: 18
    Last Post: 02-18-2013, 02:21 PM
  2. Ajeeb Dastaan Hai Yeh- the perfect tab
    By sagar_saxena in forum Hindi Guitar Tabs - Submit or Request
    Replies: 1
    Last Post: 07-31-2006, 03:52 PM
  3. MY :: ajeeb dastaan ( instrumental))
    By abhimanjrekar in forum IGT Soundtrack - Your Band, Your Gig, Your Music
    Replies: 4
    Last Post: 01-24-2006, 09:44 PM
  4. TABS Dastaan by Inteha
    By ENT in forum Pakistani Guitar Tabs - Submit or Request
    Replies: 3
    Last Post: 11-02-2005, 03:26 PM
  5. tabs for ajeeb dastan hai ye
    By stendec in forum Hindi Guitar Tabs - Submit or Request
    Replies: 5
    Last Post: 07-26-2004, 09:04 AM

Bookmarks

Posting Permissions

  • You may not post new threads
  • You may not post replies
  • You may not post attachments
  • You may not edit your posts
  •  
Single Sign On provided by vBSSO