Follow Us On Follow us on Facebook Follow us on Twitter Watch us on YouTube
Register
Results 1 to 8 of 8
  1. #1
    amit82cse's Avatar
    amit82cse is offline Silent observeR
    Join Date
    May 2005
    Location
    Redmond, WA
    Posts
    1,424

    Tab submission : Hum hain ek pal yahan - Kisna

    Hope you guys will enjoy playing this...

    -----------------------------------------------------------------------------
    --11-10-8-----8--11-11----------------------8-------------------------
    -------------10--------------8\7------7-8-10----10---------------------
    ----------------------------------------------------------8-7---------------
    -----------------------------------------------------------------------------
    -----------------------------------------------------------------------------


    -----------------------------------------------------------------------------
    --11-10-8-----8--11-11----------------------8-10-8-10/11----------
    -------------10--------------8\7------7-8-10----------------------------
    -----------------------------------------------------------------------------
    -----------------------------------------------------------------------------
    -----------------------------------------------------------------------------


    ---------------10-10---10-10----8--------------------11-11---11-11-
    --11-10-11--------------------------11---11-10-11--------------------
    -----------------------------------------------------------------------------
    -----------------------------------------------------------------------------
    -----------------------------------------------------------------------------
    -----------------------------------------------------------------------------


    --11-10-8-----------------------------------------------------------------
    -------------11-10p8-----------------8-10-8--------8------------------
    -------------------------10----10-10------------7-7---------------------
    -----------------------------------------------------------------------------
    -----------------------------------------------------------------------------
    -----------------------------------------------------------------------------

  2. #2
    ygokazuki is offline Newbie
    Join Date
    Apr 2005
    Posts
    29
    Thank you!

  3. #3
    azz's Avatar
    azz
    azz is offline Newbie
    Join Date
    Jun 2005
    Location
    karachi
    Posts
    26
    thanks alot

  4. #4
    guitarlover22 is offline Newbie
    Join Date
    Jan 2005
    Posts
    11
    gr8 work keep it up

  5. #5
    amit82cse's Avatar
    amit82cse is offline Silent observeR
    Join Date
    May 2005
    Location
    Redmond, WA
    Posts
    1,424
    thanks for response but how many have you actually played it?

  6. #6
    faiqgiant's Avatar
    faiqgiant is offline .: Innocent :.
    Join Date
    Feb 2005
    Posts
    187
    da way ur asking " but how many have you actually played it? " made me think dat were dese tabs correct lol

    nice try man keep it up

  7. #7
    adityabajaj007's Avatar
    adityabajaj007 is offline Guitarist
    Join Date
    May 2005
    Posts
    122
    hey dude...nice work...chords plzz??

  8. #8
    u-n-i is offline Newbie
    Join Date
    Jan 2006
    Posts
    3
    thanks for these tabs man

 

 

Similar Threads

  1. Hum hai is pal yahan: Kisna; Chords.
    By virajsusarla in forum Hindi Guitar Tabs - Submit or Request
    Replies: 1
    Last Post: 03-02-2009, 08:43 PM
  2. Tabs Submission : Jeena Yahan Marna Yahan - MERA NAAM JOKER
    By amit82cse in forum Hindi Guitar Tabs - Submit or Request
    Replies: 5
    Last Post: 10-22-2008, 01:49 AM
  3. Kisna: Hum he iss pal yahan
    By guitarangela in forum Hindi Guitar Tabs - Submit or Request
    Replies: 17
    Last Post: 05-01-2007, 07:48 AM
  4. Kisna - Hum hain is pal yahan (tabs, corrected)
    By skaw in forum Hindi Guitar Tabs - Submit or Request
    Replies: 7
    Last Post: 09-28-2005, 11:53 PM
  5. KISNA - Hum hain
    By surmayee in forum Hindi Guitar Tabs - Submit or Request
    Replies: 0
    Last Post: 03-19-2005, 05:05 PM

Bookmarks

Posting Permissions

  • You may not post new threads
  • You may not post replies
  • You may not post attachments
  • You may not edit your posts
  •  
Single Sign On provided by vBSSO