Follow Us On Follow us on Facebook Follow us on Twitter Watch us on YouTube
Register
Results 1 to 6 of 6
  1. #1
    bikaspathak is offline Newbie
    Join Date
    Jan 2010
    Posts
    3

    Thumbs up surili akhiyon wali

    intro tabs:
    one can change the tabs half note sharp or flat according to the guitar tuning.........
    enjoy


    -2s4---4-7------7--------------------
    -----------7---7--5---5-4-7-----------
    --------------------------------

    0-2-2s4---4-7------7--------------------
    ---------------7---7--5---5-4-7-----------
    --------------------------------------------

    -----2s4---4-7------7--------------------
    ----------------7---7--5---5-4-7-----------
    -4-4---------------------------------------

  2. #2
    rajarchit2005 is offline Newbie
    Join Date
    Feb 2009
    Posts
    22
    good work bro

  3. #3
    bikaspathak is offline Newbie
    Join Date
    Jan 2010
    Posts
    3

    Smile

    thanks!!!!!!!!!!!!

  4. #4
    yash5555 is offline Newbie
    Join Date
    Jun 2008
    Posts
    6
    osum1 mate

  5. #5
    Arrogance is offline Newbie
    Join Date
    Jun 2009
    Posts
    1

    Smile

    Nice bro!!!!

  6. #6
    sanketdhoke is offline Newbie
    Join Date
    Jul 2008
    Posts
    15
    how about this?

    e|--------------7-----7----------/-----------------7-----7-------------------|
    B|--7 slide 9-9---7-7---------7--/-5-7-7 slide 9-9---7-7---------7-----------|
    G|----------------------9-9-8----/-------------------------9-9-8-------------|
    D|-------------------------------/-------------------------------------------|
    A|-------------------------------/-------------------------------------------|
    E|-------------------------------/-------------------------------------------|

 

 

Similar Threads

  1. req. jaddo bhari ankho wali....suno
    By gaurav123 in forum Hindi Guitar Tabs - Submit or Request
    Replies: 0
    Last Post: 02-10-2007, 01:12 PM
  2. tabs for o haseens zulfon wali
    By harshitgupta in forum Hindi Guitar Tabs - Submit or Request
    Replies: 5
    Last Post: 12-28-2006, 07:06 PM
  3. main tumhare bache ki maa banne wali hun !!!
    By vishwa_81us in forum The ChitChat Lounge
    Replies: 36
    Last Post: 09-30-2005, 10:04 AM
  4. Req- Tabs for O Hasina Julfon Wali
    By Shashank007 in forum Hindi Guitar Tabs - Submit or Request
    Replies: 4
    Last Post: 07-07-2005, 11:21 PM
  5. Oh Haseena Zulfoon Wali
    By Asad7950 in forum Hindi Guitar Tabs - Submit or Request
    Replies: 0
    Last Post: 01-07-2005, 11:47 PM

Bookmarks

Posting Permissions

  • You may not post new threads
  • You may not post replies
  • You may not post attachments
  • You may not edit your posts
  •  
Single Sign On provided by vBSSO