Follow Us On Follow us on Facebook Follow us on Twitter Watch us on YouTube
Register
Results 1 to 4 of 4
  1. #1
    stendec is offline Newbie
    Join Date
    Feb 2004
    Location
    Cochin
    Posts
    23

    Wink Suraj Hua Maddham

    Hope u guys like this mushy song

    Suraj Hua Madham
    Film - Kabhi Khushi Kabhi Gham
    Singers - Sonu Nigam and Alka Yagnik


    E |------5--5------------------5----7-8---7-7------------|
    B |---5-------5-8-----5------------------------8---------|
    G |------------------------------------------------------|
    e a a e g e a b c b b g
    Suraj hua maddham, chaand jalne laga

    E |------5----------------5-----7--8--7--7---------------|
    B |---5-----5--8---5------------------------8------------|
    G |------------------------------------------------------|
    e a e g e a b c b b g
    Aasmaan yeh haai, kyoon pighalne laga

    E |--5----5--5------5-------7---7---------5--5-----------|
    B |--------------8-----------------5---8-----------------|
    G |------------------------------------------------------|
    a a a g a b b e g a a
    Main thehra raha, zameen chalne lagi

    E |----5--5-7------5----------7--7---------5--5----------|
    B |------------8--------------------5---8----------------|
    G |------------------------------------------------------|
    a a b g a b b e g a a
    Dhadka yeh dil, saans thamne lagi


    E |---7---5---------5--5--7-7-7--------------------------|
    B |------------8-----------------8-8-8--5--5---5---------|
    G |------------------------------------------------------|
    b a g a a b b b g g g a a a
    Oh, kya yeh mera pehla pehla pyaar hai


    E |--8-8-7-5----7---7-----5--5--7-7-7---------5---5--5---|
    B |----------8-------------------------8-8-8-------------|
    G |------------------------------------------------------|
    c c b a g b b a a b b b g g g a a a
    Sajna, kya yeh mera pehla pehla pyaar hai



    Hai khoobsurat yeh pal, sab kuch raha hai badal
    Sapne haqeeqat mein jo dhal rahe hai
    Kya sadiyon se puraana hai rishtaa yeh hamaara
    Ke jis tarha tumse hum mil rahe hai

    Yunhi rahe har dam pyaar ka mausam
    Yunhi milo humse tum janam janam

    Main thehra raha, zameen chalne lagi
    Dhadka yeh dil, saans thamne lagi

    Haan, kya yeh mera pehla pehla pyaar hai
    Sajna, kya yeh mera pehla pehla pyaar hai

    Tere hi rang se yun main to rangeen hoon sanam
    Paake tujhe khud se hi kho rahi hoon sanam
    O maahiya, ve tere ishq mein
    Haan doobke paar main ho rahi hoon sanam

    Saagar hua pyaasa, raat jagne lagi
    Sholo ke dil mein bhi aag jalne lagi
    Main thehri lagi, zameen chalne lagi
    Dhadka yeh dil, saans thamne lagi
    Unseen Unheard Unearthed

  2. #2
    Zion's Avatar
    Zion is offline *** Santana Ka Baap ***
    Join Date
    Jan 2004
    Posts
    129
    nice one dude.... keep it up
    Words when stretched becomes a song...

    Movement when stretched becomes a dance...

    Mind when stretched becomes meditation...

    Life when stretched becomes celebration...

  3. #3
    jazzy is offline Newbie
    Join Date
    May 2004
    Location
    Abu Dhabi, UAE
    Posts
    20

    Question REQ: Chords

    Thats a great job. BTW Can anybody help me out with the chords for this song?

  4. #4
    Nbajaj is offline Newbie
    Join Date
    Jul 2004
    Posts
    4

    The intro

    here i just tabbed the begging of the song the intro right before the main tab

    E -5--8--7-------5--8-7---5--8--7----------5----------
    B ---------8--5---------------------8--5---------------
    G --------------------------------------------------

 

 

Similar Threads

  1. tum ho toh suraj jaggan (rock on)
    By madhav_bansal in forum Hindi Guitar Tabs - Submit or Request
    Replies: 5
    Last Post: 08-23-2008, 12:41 PM
  2. K3G - Suraj Hua madham
    By nitin2go in forum Hindi Guitar Tabs - Submit or Request
    Replies: 0
    Last Post: 02-09-2008, 10:37 AM
  3. sheet music: Suraj Hua Maddham
    By AnishaRai in forum Misc Musical Instruments
    Replies: 0
    Last Post: 11-29-2006, 04:33 AM
  4. Suraj ki garmi se jalte hue
    By malgudi in forum Hindi Guitar Tabs - Submit or Request
    Replies: 0
    Last Post: 11-16-2006, 01:40 PM
  5. suraj ghuul gaya
    By madhuresh in forum Poetry and Lyrics Forum
    Replies: 1
    Last Post: 11-15-2006, 04:03 PM

Bookmarks

Posting Permissions

  • You may not post new threads
  • You may not post replies
  • You may not post attachments
  • You may not edit your posts
  •  
Single Sign On provided by vBSSO