Follow Us On Follow us on Facebook Follow us on Twitter Watch us on YouTube
Register
Results 1 to 4 of 4
  1. #1
    distorted's Avatar
    distorted is offline satan
    Join Date
    Dec 2008
    Location
    gutter
    Posts
    681

    Thumbs up Submit: emotional attyachar (rock version)

    Intro arpeggio: (basically on chords Dm, F, C n Dm)
    |-----5-----------------3----------------
    |-------66---------------55-------------
    |---7-----------------5-----------7------
    |-7-----------------5---------5-5-5----
    |----------------8------------------------
    |------------8-8-8----------------------


    Intro lead (1)
    |-10---8-8-8-8------------------------
    |----10-----------8---8-10------------
    |--------------------10------------------
    |----------------------------------------
    |----------------------------------------
    |----------------------------------------




    |-10---8-8-8-8--13-15-13-10-------
    |----10-----------------------------------
    |------------------------------------------
    |------------------------------------------
    |------------------------------------------
    |-------------------------------------------



    Lead 2
    |---------------------------------------------
    |------------8--8-10-8-------8-10-8-----
    |-7-10--10------------10-7----------10-7-7-
    |---------------------------------------------
    |---------------------------------------------
    |---------------------------------------------


    |----------------------------------------------
    |------------8--8-10-8-------8-10-10---8-10
    |-7-10--10------------10-7------------10---
    |---------------------------------------------
    |---------------------------------------------
    |---------------------------------------------



    Lead 3
    |----------------------------------
    |----------------------------------
    |-7-9-10-9-10-9---7-----------
    |-------------------10-------------
    |-----------------------------------
    |-----------------------------------


    |-----------------------------------
    |-----------------------------------
    |-7-9-10-9-10-9---7-----------
    |-------------------10-------------
    |-----------------------------------
    |-----------------------------------


    |-------------------------------------------
    |-------------------------------------------
    |-7-9-10-9--9-10-9-9-10-9-9-10-9-10-9-
    |-------------------------------------------
    |-------------------------------------------
    |-------------------------------------------

    this lead goes on repeating behind the lyrics (next 2 lines)

    Barpa jo ek shor......
    Kal mera bebak tha.... (5th fret on e string is tapped)

    D5.............D5...................D5...........D 5
    ...Ankho ke age jo hai, manzar lava barsaye

    F5..............................F5................ .........................E5
    Jalta hai dil, jalta hai, dil dil me jalta hun

    D5..............D5...................D5........... ..D5
    Is lamhe ki haqeekat, gawara na kar paye
    F5......................................F5........ .....................................E5
    Jalta hai dil, jalta hai, dil dil me jalta hun


    D5
    Hat ja re, hat ja re pare
    F5
    Hat ja re nazaron se pare
    C5
    Hat ja re, hat ja re,
    A#5
    Are ja re.......X2

    D5
    Tere lafz ke haar jaise,
    F5
    Hain yaadon mein chubhte rehte,
    C5
    Aansu mere behte rehte,
    A#5
    Khoon ke
    A5 (going lower)
    Khoon ke
    G5
    Khoon ke
    F5
    Khoon ke
    E5
    Khoon ke
    D5
    Khoon ke
    E5

    D5.... Intro arpeggio...
    .......ankho ka hai... X2


    D5 F5 E5 D5 D5/F5 E5 D5
    AAAAAAAAAAAAAAA...........

    D5......................F5...............E5....... ......D5
    Ankhon ka hai dhokha aisa tera pyaar..
    D5......./F5.............E5......D5
    Tera emotional attyachar.
    (repeats till end)
    Towards end play n mute the D5.


    pls luk fr the tyming, suggestions, corrections n appreciations r welcome.
    ------------------------------------------------------------------------------------------
    Into these dreams of darkness that unite our souls
    Into these dreams of sadness forever we'll go
    Forsaking the illusion that turns the flesh from stone
    Forsaking the illusion that binds us to the bone
    ------------------------------------------------------------------------------------------
    i trade weed.... any buyers??

  2. #2
    distorted's Avatar
    distorted is offline satan
    Join Date
    Dec 2008
    Location
    gutter
    Posts
    681
    Sorry guys, lead3 is wrong, will correct it sun. N no replies yet??
    ------------------------------------------------------------------------------------------
    Into these dreams of darkness that unite our souls
    Into these dreams of sadness forever we'll go
    Forsaking the illusion that turns the flesh from stone
    Forsaking the illusion that binds us to the bone
    ------------------------------------------------------------------------------------------
    i trade weed.... any buyers??

  3. #3
    sudipto1 is offline Newbie
    Join Date
    May 2008
    Posts
    1
    im a newbie....i tried to play the intro bt it didnt sound the same....lead 1 and lead two are perfect......i made some changes in lead two whch sound better.....can u post the audio file of each lead and intro that wud be betta

  4. #4
    monster.shanu is offline Newbie
    Join Date
    Apr 2008
    Location
    Meerut
    Posts
    12
    that shit is awesome dude... ! keep the good work up

 

 

Similar Threads

  1. Req - Tera Emotional Atyachar(Rock Version) chords
    By abhi_gen_male in forum Hindi Guitar Tabs - Submit or Request
    Replies: 12
    Last Post: 08-02-2012, 04:16 PM
  2. Emotional Attyachar Chords
    By monisguitar in forum Hindi Guitar Tabs - Submit or Request
    Replies: 7
    Last Post: 07-23-2009, 09:26 AM
  3. Oh come all ye faithful - rock version
    By JamesRevelation in forum Hindi Guitar Tabs - Submit or Request
    Replies: 0
    Last Post: 12-28-2008, 12:09 AM
  4. REQ: We will rock you (guitar version)
    By Ali Akber in forum English Guitar Tabs - Submit or Request
    Replies: 0
    Last Post: 09-03-2008, 12:01 PM
  5. Gals are more emotional Or Guys Hide Emotions??
    By notty_lad in forum The ChitChat Lounge
    Replies: 47
    Last Post: 10-30-2005, 12:03 AM

Bookmarks

Posting Permissions

  • You may not post new threads
  • You may not post replies
  • You may not post attachments
  • You may not edit your posts
  •  
Single Sign On provided by vBSSO