Follow Us On Follow us on Facebook Follow us on Twitter Watch us on YouTube
Register
Results 1 to 3 of 3
  1. #1
    harmonizer's Avatar
    harmonizer is offline The Son of the Moon
    Join Date
    Aug 2010
    Location
    Now in Jaipur
    Posts
    214

    Post Sub: Haye Mera Dil - Alfaaz Ft. Honey Singh (Chords And Tabs)

    Song : Haye Mera Dil
    Album : Boy Next Door
    Singer : Alfaaz ft Honey Singh

    Tabbed by Cease and Harmonizer !!

    Download the Text File Haye Mera Dil_Alfaaz_ft_Honey Singh.txt for more accuracy

    Intro :
    (Bm)
    e-------2-----2-----
    B---------3-----3---
    G-----4-----4-------
    D---4---------------
    A-2-----------------
    E------------------- X 3

    (A) (D) (A) (Bm)
    e-------2-5-5--------2-------0--2----
    B-----2-----------3--------2----3----
    G---2-----------2--------2------4----
    D-2-----------0--------2--------4----
    A-------------------------------2----
    E-------------------------------2----

    (Bm) (D)
    Ro Ro Ke Arjjah Gujaarda da eh Dil
    (A) (Bm) (G)
    Haye mera Dil - Haye mera Dil

    Download Strumming pattern

    Part-1
    e----9h10-10----9h10-10----9/12-9-14-12----12-12h14--
    B-12---------12---------12--------------15-----------
    G----------------------------------------------------
    D----------------------------------------------------
    A----------------------------------------------------
    E----------------------------------------------------

    (Bm) (D)
    Ro Ro ke Arjjah Gujaarda da eh Dil
    (Strumming Start)
    (A) (Bm) (G)
    Haye mera Dil - Haye mera Dil
    (Bm) (D)
    Jagg Diyan Najjran toh chori Kite Mil
    (A) (Bm)
    Haye mera Dil - Haye mera Dil

    Part-2(Guitar)
    (Bm) (D) (A) (Bm)
    e-------------------------------------------------------------------
    B---7-5-7---5-------7-5-7---5-------5---5-----------5---5-----------
    G-4-------7---6-7-4-------7---6-7-----7---6-7-4-6-----7---6-7-4-6---
    D---------------------------------7---------------7-----------------
    A-------------------------------------------------------------------
    E-------------------------------------------------------------------

    Part-2 (Violin)(Play every note twice except last 5 notes)
    (Bm) (D) (A) (Bm) (G)
    e----------------------------------------------------------------------
    B---7-5-7---5-------7-5-7---5---------5---5-----------5---5-7-5---5-7--
    G-4-------7---6-7-4-------7---6-7-------7---6-7-4-6-----7-------7------
    D-----------------------------------7---------------7------------------
    A----------------------------------------------------------------------
    E----------------------------------------------------------------------


    (Bm)
    Teri Yaadan di Sandhookdi da
    (D)
    Ho ke reh geya
    (A)
    Dil Sadda khure kehde
    (Bm)
    Rahe Pe Geya

    (Same as above)

    Yaadan di Sandhookdi da
    Ho ke reh geya
    Dil Sadda khure kehde
    Rahe Pe Geya

    Kehnda tuhi sadda Rah te Tuhi Mazil
    Haye mera Dil - Haye mera Dil

    Ro Ro Ke Arjjah Gujaarda da eh Dil
    Haye mera Dil - Haye mera Dil (Dont play G here)


    {{ Honey Singh }}

    (Bm) (D) (A) (Bm)

    Jinna tere naal c Pyaar
    Hun kitte ho b na sakda
    raatan nu , Main Sou b nahi sakda
    kee kra Main
    Roo B nahi Sakda
    Haan ...Haan
    Tere Muchu muchu nonu Sonu monu
    Wali Gallan Chete Aoundian
    Jinna marzi Bhulna main Chawa
    Mudh Mudh Satoundian
    Main Chayidi eh tu
    Ya Chayidi ni tu
    Meinu dus ta de
    Girl what you do
    Meri Zind meri jaan meri Rooh eh tu
    But bhuldi kiyu That
    I LOVE YOU
    You know is True
    Just me and you
    Fhir kiyu krdi eh ehda tu
    Appe hogeye ah Vakkh Chal koi na
    Hun kalle beh ke royi na tu

    {{Alfaaz}}
    (Bm)
    Unjh Maadiyan te bhawe
    (D)
    Mathe diya leekan ne
    (A)
    Alfaaz nu haje b
    (Bm)
    Terian udeekan ne...2x
    (Bm) (D)
    Jeeda Chandigarh Lagda na tere bina Dil
    (A) (Bm) (G)
    Haye mera Dil - Haye mera Dil


    Ro Ro Ke Arjjah Gujaarda da eh Dil
    Haye mera Dil - Haye mera Dil

    (Bm)(D)(A)(Bm)
    Chal koi na
    kalle beh ke royi na ..6x


    Gears:
    Pluto Jumbo HW41CET-101-SPN, Yamaha RGX 220 DZ, Dean Edge-10 APJ (Skull Crusher),
    Roland Microcube, Stranger Cube 40M
    Boss DS-1
    Yamaha PSR E233
    DB 5 Piece Drum kit
    Peavy PVi 100 Microphone

    Blues is Blooming,
    Rock is a Ray.
    Metal is Mighty,
    Pop is Gay...

  2. #2
    cease's Avatar
    cease is offline Newbie
    Join Date
    Jun 2011
    Location
    Itastatah
    Posts
    14

    Cool Cease

    Correct it if there's any mistake.....it will be appreciated....
    mAniAc metAl

  3. #3
    yudie998877 is offline Newbie
    Join Date
    May 2012
    Location
    new delhi
    Posts
    1
    nicely done man thxxxx a lot wish thr wuz a tab for guitar pro 4 tis sng :P

 

 

Similar Threads

  1. Haye mera dil - JOSH (chords)
    By raj_loves_music in forum Hindi Guitar Tabs - Submit or Request
    Replies: 7
    Last Post: 11-26-2011, 01:41 AM
  2. CHORD & REQ - Dil Haye Mera Dil - Paraya Dhan
    By jozko in forum Hindi Guitar Tabs - Submit or Request
    Replies: 1
    Last Post: 10-21-2006, 12:42 PM
  3. 'Alfaaz...!'
    By Amanush... in forum Poetry and Lyrics Forum
    Replies: 18
    Last Post: 08-12-2005, 05:35 PM
  4. Tabs Submission : Yeh Ladka Haye Allah - Mohammad Rafi
    By amit82cse in forum Hindi Guitar Tabs - Submit or Request
    Replies: 3
    Last Post: 06-24-2005, 11:52 PM
  5. Req: Tabs & Chords of Gham Ka Khazana by Jagjit Singh
    By PrettyPinkGrl in forum Hindi Guitar Tabs - Submit or Request
    Replies: 1
    Last Post: 04-28-2005, 02:54 PM

Bookmarks

Posting Permissions

  • You may not post new threads
  • You may not post replies
  • You may not post attachments
  • You may not edit your posts
  •  
Single Sign On provided by vBSSO