Follow Us On Follow us on Facebook Follow us on Twitter Watch us on YouTube
Register
Results 1 to 2 of 2
  1. #1
    wisevijay's Avatar
    wisevijay is offline newbombayrox
    Join Date
    Dec 2003
    Location
    New Bombay,India
    Posts
    416

    Some old hindi songs

    Hey guys here r some old hindi songs.dunno where i got it frm but had it in my PC.

    Dil kya kere [kishore kumar]
    _____________________________________________

    [G#m] = Dil kya ke-re sjab ki-si [F#] = se

    [G#m7] > Ki-si ko [G#m] = pjar ho dja je

    Dja-ne keha khab ki-si [F#]=ko

    [G#m7] > Ki-si se [G#m] = pjar ho dja je
    ________________________________________________

    [G#7] > Ou-tjie ou-tjie [C#m] = diware ro-sie

    [B] > Is-se doe-nia kie [G#m] = ras-se me

    [G#7] > Hoho

    [G#m] = Na koesse ter-re [C#m] = besse-me Jullie

    [B] > Na koesse mee-re [G#m] = besse me
    ________________________________________________

    [G#m7] = Dja-se per-re [B] = bhat-te-pe kha- [G#m7] = ta djoek-ke- [B] = tie he

    [G#m7] = Dja se sa-[B]=khar-re se le-[G#m7] = her oed- [B] = thie he

    [C#m7] > Esse kie-sie djere-pe [D#m] = nie-kha roe-ke-[G#m7]=tie he

    [G#7]=Hoho

    Roek-ke [C#m] = nehie seke-tie nesaro [F#] = kho

    Dun-ja [G#m7] = bhar ke [B] = rasse-me

    [G#m] > Na koesse ter-re [C#m] = besse-me Jullie

    [B] > Na koesse mee-re [G#m] = besse me…
    I AM NORMAL!I AM NORMAL!I AM NORMAL!I AM NORMAL!I AM NORMAL!I AM NORMAL!I AM NORMAL!

  2. #2
    wisevijay's Avatar
    wisevijay is offline newbombayrox
    Join Date
    Dec 2003
    Location
    New Bombay,India
    Posts
    416
    heres another one.
    Kahin Door Jab Din Dhal Jaaye - Aanad (Mukesh)

    e------------------------------------------------
    B------------------------------------------------
    G--9-9-9-9-7-5-5-7-5-2-5-0---------------

    Kahin Door jab din dhal jaaye

    e---------------------------------------------------
    B--2-2----2-2-2---0-2-4-2-4-4---0-9-7-5-5--
    G-------3-------------------------------------------
    Shaam ki dulhan badan churaye chupke se aaye

    e------------------------------------------------
    B------------------------------------------------
    G------12-11-12-10\9-9----------------------
    D--10--------------------------------------------

    Mere Khayaalo

    e------------------------------------------------
    B------------------------------------------------
    G--7-9-10-9-10-9-7-------------------------
    D------------------------------------------------
    Ke Aangan mein

    e------------------------------------------------
    B------------------------------------------------
    G------------------------------------------9-9---
    D--10-12-14-12-14-14---12-17-15---------
    Koi Sapno ke Deep Jalaaye

    e------------------------------------------------
    B--0-9-7-5-5----------------------------------
    G------------------------------------------------
    D------------------------------------------------
    Chupke se aaye
    I AM NORMAL!I AM NORMAL!I AM NORMAL!I AM NORMAL!I AM NORMAL!I AM NORMAL!I AM NORMAL!

 

 

Similar Threads

  1. Hindi songs notes & tabs of old hindi romantic songs
    By Rik in forum Hindi Guitar Tabs - Submit or Request
    Replies: 13
    Last Post: 01-14-2013, 02:08 AM
  2. Some Good Instrumental hindi songs or english songs For beginners
    By pruthuze in forum Beginner's Q&A Forum
    Replies: 10
    Last Post: 10-04-2012, 11:57 AM
  3. Into old hindi songs. Have lots of tracks of songs from the 70s and 80s
    By onemanband in forum Misc Musical Instruments
    Replies: 2
    Last Post: 05-02-2012, 07:12 AM
  4. Thought : old hindi songs Vs New hindi songs !!!
    By nayanjyotis in forum The ChitChat Lounge
    Replies: 3
    Last Post: 02-24-2007, 12:11 PM
  5. 5..........Hindi Pop songs....
    By kajari in forum Hindi Lyrics - Submit or Request
    Replies: 0
    Last Post: 11-09-2005, 04:23 PM

Bookmarks

Posting Permissions

  • You may not post new threads
  • You may not post replies
  • You may not post attachments
  • You may not edit your posts
  •  
Single Sign On provided by vBSSO