Follow Us On Follow us on Facebook Follow us on Twitter Watch us on YouTube
Results 1 to 4 of 4
  1. #1
    Authentic's Avatar
    Authentic is offline Banned
    Join Date
    May 2005

    Solo For Dus Bahenin - Dus


    here we go....... tell me

    this is the part where he says

    "dus bahenin ker keh ley ghaye dill"

  2. #2
    amit82cse's Avatar
    amit82cse is offline Silent observeR
    Join Date
    May 2005
    Redmond, WA
    which song is this? where can i listen?

  3. #3
    tejas_9889's Avatar
    tejas_9889 is offline Beginner
    Join Date
    May 2005
    well .. here r the tabs of the song
    i have just tried out this song - Dus bahane
    from the film dus . i have not figured out the intro of this

    1 --------0--0------0--1--0---0---------------------------
    2 ---------------3------------------3--1--1---3----------
    3 ---2-------------------------------------------------------

    uski aankhon mai baatein baaton mai jadoo

    1 --------0--0---------0-1--0---0-------------------------
    2 ---------------3--------------------3--1--1---3--------
    3 ---2-------------------------------------------------------

    jadoo mai kho gaye hum ho gaye bekaabo
    (The only diff is tht the 5 note comes a little late while 6 th note comes fast )

    1 --------------------------------------------------------------------
    2 -------0---------------0----------------0---------3---1--0--0---
    3 ---2------2--1----2------2--1----2--------2---------------------

    I looked at u , u looked at me aur ho gayi mushkil

    1 ------------------------------------------------------------------
    2 -------0---------------0----------------0--------3---1--0--0--
    3 ---2------2--1----2------2--1----2--------2------------------

    as u became my destiny tuhi meri manzil

    1 ------------------------------------------------------------
    2 ---1--1--0--0-------------------0--0-------0--1--------
    3 ------------------2--2----0--2----------2----------------

    dus bahane karke le gaye di , le gaye dil

    i will add the nxt part later ... if this could be improved then suggestions r welcome
    Hickory, ****ory dock, three mice ran up the clock, the clock struck one, and the other two escaped with minor injuries

  4. #4
    Ankitad is offline Newbie
    Join Date
    Apr 2005
    Abu Dhabi (Studyin in the UK)
    Amazing wrk man, its sounds gr8.
    Keep it up !



Similar Threads

  1. Boulevard of Broken Dreams Solo and Out-Solo.
    By limaj_daas in forum English Guitar Tabs - Submit or Request
    Replies: 6
    Last Post: 08-15-2010, 06:47 PM
  2. REQ: oncha hoon main solo by NOORI nd doorie solo by atif aslam
    By maaani in forum Pakistani Guitar Tabs - Submit or Request
    Replies: 4
    Last Post: 07-08-2007, 02:49 PM
  3. How to SOLO???
    By m_waleed86 in forum Beginner's Q&A Forum
    Replies: 5
    Last Post: 11-12-2005, 12:47 AM
  4. Solo.
    By invisiblekiller in forum Pakistani Guitar Tabs - Submit or Request
    Replies: 5
    Last Post: 11-05-2005, 12:09 PM
  5. nem:: solo
    By abhimanjrekar in forum English Guitar Tabs - Submit or Request
    Replies: 0
    Last Post: 08-20-2005, 12:23 PM


Posting Permissions

  • You may not post new threads
  • You may not post replies
  • You may not post attachments
  • You may not edit your posts
Single Sign On provided by vBSSO