Follow Us On Follow us on Facebook Follow us on Twitter Watch us on YouTube
Register
Page 1 of 2 12 LastLast
Results 1 to 15 of 24
  1. #1
    Hardik's Avatar
    Hardik is offline .:.:.:BoRn TaLenT:.:.:.
    Join Date
    Jan 2005
    Location
    Pune
    Posts
    643

    Smile Sajna aa bhi ja - Waisa bhi hota hai part 2

    this is another good song from this movie...apart from allah ke bande...
    check out the chords....

    C---------------D
    sajna, aa bhi ja...

    C-------G----------Em
    sajna, aaaa bhi ja,

    Em---------------------D
    nai lagda tere bina, dil mera,

    ----G-------------------------D-----Em
    haai nai lagda tere bina, dil mera,


    sajna......


    Em------------------------D
    bindya, mehndi kangna, chudi jumar gehna,

    G----------------------D---------------Em
    pyase pyase naina, soone pade tere bina,


    nai lagda......

    (other verses have same pattern...)

    TRY THESE OUT and tell me if they are right.....
    TaKe LiFe As It CoMes....

  2. #2
    browneyegurlie's Avatar
    browneyegurlie is offline Sweet as Honey
    Join Date
    Jan 2005
    Location
    uk
    Posts
    128
    ooo wow finally someone posts for this song, i shall now have to learn chords!! but can anyone work out the riffs which are played near the end of the song?
    everything about you is so easy to love,
    i've been watching from above

  3. #3
    Hardik's Avatar
    Hardik is offline .:.:.:BoRn TaLenT:.:.:.
    Join Date
    Jan 2005
    Location
    Pune
    Posts
    643

    Smile tabs

    Here are the tabs 4 da song………..



    E-------3--5-3-2-------------2------2------------------------------------------
    B---3-5----------5-3-----3-5----------5-5--------------------------------------
    G-4--------------------4--------4-5--------------------------------------------
    D------------------------------------------------------------------------------
    A------------------------------------------------------------------------------
    E------------------------------------------------------------------------------
    sajna aa bhi jaaaa, sajna aaa bhi ja

    E-5h7-7-7-5-7-5----------------------------------------------------------------
    B---------------8-7-5-7------5-7-5-5----7-5---5-8------------------------------
    G-----------------------7--7----------------7----------------------------------
    D------------------------------------------------------------------------------
    A------------------------------------------------------------------------------
    E------------------------------------------------------------------------------
    nai lagda tere bina, dil mera , haaiiii

    E------------------------------------------------------------------------------
    B-8-8-8-88-7-5----5-7-5-5------------------------------------------------------
    G--------------7-7--------7-4--------------------------------------------------
    D------------------------------------------------------------------------------
    A------------------------------------------------------------------------------
    E------------------------------------------------------------------------------
    nai lagda tere bina, dil mera




    E------------------------------------------------------------------------------
    B-5-5-5-5-5-7-5-----5-7-5-7-7-7—-8-8-8-8-8-7-5-----5-7-5-5-5-5-5--------------
    G---------------7-7-----------------------------7-7---------------7-4----------
    D------------------------------------------------------------------------------
    A------------------------------------------------------------------------------
    E------------------------------------------------------------------------------
    bindya mehnidi kangna, chudi jumar ............



    I dont have the song, so i dont remember the riff.....will surely post if i get the song
    TaKe LiFe As It CoMes....

  4. #4
    cYpHeR's Avatar
    cYpHeR is offline Banned
    Join Date
    Mar 2005
    Location
    Mumbai
    Posts
    632
    nice wrk har***...

  5. #5
    Hardik's Avatar
    Hardik is offline .:.:.:BoRn TaLenT:.:.:.
    Join Date
    Jan 2005
    Location
    Pune
    Posts
    643
    thanks.....and please if you feel mine or anyones work is nice,dont forget to give reps....
    TaKe LiFe As It CoMes....

  6. #6
    abhis_pals's Avatar
    abhis_pals is offline Beginner
    Join Date
    Jan 2004
    Posts
    58
    can anyone help me with the bass tabs for the song?

  7. #7
    abhis_pals's Avatar
    abhis_pals is offline Beginner
    Join Date
    Jan 2004
    Posts
    58
    can anyone help me with the bass tabs for the song?

  8. #8
    browneyegurlie's Avatar
    browneyegurlie is offline Sweet as Honey
    Join Date
    Jan 2005
    Location
    uk
    Posts
    128
    wow tis ace thank you all happy now!!! hahha this song fits me so well!
    erm u cud get the song on www.raaga.com
    everything about you is so easy to love,
    i've been watching from above

  9. #9
    souman_das is offline Tabber
    Join Date
    Dec 2004
    Location
    Noida
    Posts
    288
    dear har***,
    the original song is in E minor scale.
    try Em,D,C progression and do let me know how you feel,otherwise nicely done and just few corrections are needed here and there.

    regards,
    souman

  10. #10
    rockin'away's Avatar
    rockin'away is offline Banned
    Join Date
    Feb 2005
    Location
    UK
    Posts
    284
    great tabs......

  11. #11
    Hardik's Avatar
    Hardik is offline .:.:.:BoRn TaLenT:.:.:.
    Join Date
    Jan 2005
    Location
    Pune
    Posts
    643
    @souman, thanks....
    actually,i saw shibani kashyap play this song herself on the guitar in some show on tv....yes but i do think that C is not right....ritght now dont have guitar...but will definately make the corrections...

    @browneyegurlie...thanks for the site & i am happy that u liked it.....
    TaKe LiFe As It CoMes....

  12. #12
    koolstrum's Avatar
    koolstrum is offline The Chosen One
    Join Date
    Oct 2004
    Location
    Chicago
    Posts
    235
    yes i totally agree that C progreesion is not so right. Here is the link to my post:
    http://www.indianguitartabs.com/show...439#post154439

  13. #13
    abhimanjrekar's Avatar
    abhimanjrekar is offline ----> Zhol-Man<----
    Join Date
    Jul 2005
    Location
    mulund,mumbai
    Posts
    2,169
    ya ...the song is in Em...neways har*** great work ...keep it up.....ur too is nice...
    Na jaane koi;Kaisi hai ye zindagaani;
    Humari adhoori kahaniii................








    They say true love is just round the corner......... I must be walking in circles.

    A smile is a powerful weapon; you can even break ice with it.

  14. #14
    tvsrajendra is offline Newbie
    Join Date
    Aug 2006
    Posts
    1
    very gud song

  15. #15
    iamchinmay is offline Newbie
    Join Date
    Dec 2006
    Posts
    1

    helloo

    Quote Originally Posted by tvsrajendra
    very gud song
    []
    Very good movie also...

 

 
Page 1 of 2 12 LastLast

Similar Threads

  1. Sajna Aa Bhi Jaa-Waisa Bhi Hota Hai part II-Shibani Kashyap
    By koolstrum in forum Hindi Guitar Tabs - Submit or Request
    Replies: 11
    Last Post: 10-28-2008, 12:49 PM
  2. [REQ]Sajna Aa Bhi Jaa - WAISA BHI HOTA HAI
    By deadman2115 in forum Hindi Lyrics - Submit or Request
    Replies: 8
    Last Post: 02-24-2008, 03:00 PM
  3. Sajna [Waisa Bhi Hota Hai] intro tabs
    By Aerosmith in forum Hindi Guitar Tabs - Submit or Request
    Replies: 0
    Last Post: 02-14-2007, 07:13 PM
  4. req:guitar tabs or chords for sajna from waisa bhi hota hai
    By blackhawk in forum Hindi Guitar Tabs - Submit or Request
    Replies: 3
    Last Post: 11-25-2006, 01:10 AM
  5. Waisa Bhi Hota Hai - Sajna
    By holylord in forum Hindi Guitar Tabs - Submit or Request
    Replies: 1
    Last Post: 04-27-2005, 05:54 AM

Bookmarks

Posting Permissions

  • You may not post new threads
  • You may not post replies
  • You may not post attachments
  • You may not edit your posts
  •  
Single Sign On provided by vBSSO