Follow Us On Follow us on Facebook Follow us on Twitter Watch us on YouTube
Register
Results 1 to 10 of 10
  1. #1
    MadhukarB is offline Newbie
    Join Date
    Aug 2005
    Posts
    4

    Request for Saare Jahan Se Accha...... Guitar Tabs !!!

    hi frndz,
    I m in urgent search of the tabs for Saare Jahan Se Accha.....
    Actually I m a beginner so guys plzz help me out !!!! A request for Leads and Chords....!!!

    bye n take care.....
    hav FUN !!!

  2. #2
    rizwan's Avatar
    rizwan is offline Guitarist
    Join Date
    Jan 2005
    Posts
    152
    here's wht i tabbed out. i know there are many other types of ppl playing. but here's wht i have.

    e--5-5-2-4-1-2-2- l --2-4-6-7-6-6---
    sare jahaan se acha hindustan hamara

    e--5-5-2-4-1-2-2- l --2-4-6-7-6-6---
    sare jahaan se acha hindustan hamara

    e--6-7-9-9-9-6-7-11-9-
    hum ----------- hain iske

    e--6-7-9--7-5-4-2-1-
    yeh ---------- hamara

    e--5-5-2-4-1-2-2- l --2-4-6-7-6-6---
    sare jahaan se acha hindustan hamara
    CURSE YA FOR BREATHIN YA SLACK JAWED IDIOT!!!

  3. #3
    amit82cse's Avatar
    amit82cse is offline Silent observeR
    Join Date
    May 2005
    Location
    Redmond, WA
    Posts
    1,424
    Try following.....


    --sa-re-ja-haan-se-ach-cha-hi-n--du-se-ta-ha-ma-ra-ha-ma-aa-ra-aa
    -----------------------------------------------------------------
    --4------------------------------------5--6--5--5-----6--5-------
    -----7--5--7----4--5---5---------5--7--------------7--------7--5-
    ---------------------------5--7----------------------------------
    -----------------------------------------------------------------
    -----------------------------------------------------------------

    -hu-m-bul-bu-le-hain-i-s-ki--ye-ae-gul-si-ta-ha-ma-ra-ha-ma-aa-ra-aa
    -----------------------5--------------------------------------------
    -5--6-8---8--8--5----6---8---5--6--8---6----------------------------
    ------------------------------------------8--7--5--5--5--5--4-------
    ---------------------------------------------------------------7--5-
    --------------------------------------------------------------------
    --------------------------------------------------------------------
    facebook.com/amit82cse
    twitter.com/amit82cse

  4. #4
    shantanukr's Avatar
    shantanukr is offline yEh DiL mAanGe m0rE
    Join Date
    Sep 2004
    Location
    Hyderabad
    Posts
    329
    Hey good tabs .. Guys
    Life RocKsss !!

  5. #5
    MadhukarB is offline Newbie
    Join Date
    Aug 2005
    Posts
    4

    Following UP !!!

    hi frndzz !!!
    its good to see u guys helping out !!!! yaa I too am getting into the flow....well still miles to go !!!

    yaar Amit seen ur Threads.....its an ocean dude......keep it up this good work !!!!
    u CSE frm which college ???

    reagards,
    MADDY.

  6. #6
    akkyy21's Avatar
    akkyy21 is offline #%@!$&
    Join Date
    Jan 2005
    Location
    Pune
    Posts
    814
    @amit - Awesome tabbing man!!
    !!~~ एक्की रोक कारता है ~~!!

    ██████रो█████क██और███रो███ल███████
    ........(....\.................../....)
    .........\....\................ /..../
    ..........\....\.............../..../
    ...........\..../.|.`\./.../
    .........../... |....|.... ( `\
    ..........|.....|.|.|\....\
    ..........\......` .. ......
    ...........\_ ............ _.
    ██████रो█████क██और███रो███ल███████

    !!~~ भारत माता की जय ~~!!

  7. #7
    Join Date
    May 2005
    Location
    somwhere in engineering books
    Posts
    201

    Thank U!!

    Thanks guys!! great one
    There r some things God made for everything else there's an Engineer!! - By Me

  8. #8
    desidude01's Avatar
    desidude01 is offline Drummerboy
    Join Date
    Dec 2007
    Location
    Toronto
    Posts
    62
    does anyone have any clue what scale/key the song is in....?
    Music is the food for life.....
    for me....
    Music is life....

    Extreme n00b Alert [Syntax error]
    Extreme n00b Alert [Syntax error]
    Extreme n00b Alert [Syntax error]
    Extreme n00b Alert [Syntax error]

  9. #9
    Join Date
    Jul 2006
    Posts
    3
    Hi Amit,

    There are many ways to sing this song (some people skip some repeating words), so I wanted to know if you post the words that go with your listed tabs. Would appreciate it, thanks.

  10. #10
    cedric_diggry is offline Newbie
    Join Date
    Dec 2009
    Posts
    2

    Post hii all

    Hiii All this is My Post to Indian Guitar Tabs...

    Hope U'll like



    Saare Jahan Se Accha...Hindustan Hamara.....


    --------------------------------------------------------------------------
    ---7-7---6----------------------9--10--9-9--6-9-8-6----7-7---6----------
    -------8---7--8-8---------9--11----------------------8-------8---7--8-8--
    ---------------------9-11------------------------------------------------



    ------6-66------8-6-------8-6--------------------------------------------
    --8-9-------8-9-------8-9-----9--6--8-8--6-9-8-6------7-7---6-----------
    -------------------------------------------------------8--------8---7--8-8--
    --------------------------------------------------------------------------


    tabbed by Abhishek Shaolin
    JAI HIND

 

 

Similar Threads

  1. request for SUN LE... Ab Yeh Jahan chords
    By sohamray86 in forum Hindi Guitar Tabs - Submit or Request
    Replies: 0
    Last Post: 08-09-2008, 01:46 PM
  2. tabs for sare jahan ser accha
    By div11mat in forum Hindi Guitar Tabs - Submit or Request
    Replies: 2
    Last Post: 07-07-2007, 10:02 PM
  3. Tab [ Saare Jahan Se Achcha ]
    By Acousticity in forum Hindi Guitar Tabs - Submit or Request
    Replies: 1
    Last Post: 10-07-2005, 09:44 AM
  4. Bong song Aye Ma and nachiketa's Sare Jahan Se Accha
    By dr_arnav in forum Bengali Guitar Tabs - Submit or Request
    Replies: 0
    Last Post: 10-05-2005, 12:56 AM
  5. REQUEST: Jahan Teri Nazar from Kaalia....
    By kaiser in forum Hindi Guitar Tabs - Submit or Request
    Replies: 0
    Last Post: 02-27-2004, 09:04 PM

Bookmarks

Posting Permissions

  • You may not post new threads
  • You may not post replies
  • You may not post attachments
  • You may not edit your posts
  •  
Single Sign On provided by vBSSO