Follow Us On Follow us on Facebook Follow us on Twitter Watch us on YouTube
Register
Results 1 to 4 of 4
  1. #1
    smartydart is offline Newbie
    Join Date
    Jan 2008
    Posts
    3

    Smile Req: tabs for song TERE BINA ZINDAGI SE KOI SIKWA TO NHI

    HI FRIENDS can any one give me the tabs for song TERE BINA ZINDAGI SE KOI SIKWA TO NHI

  2. #2
    Boomrang is offline Beginner
    Join Date
    Jan 2008
    Location
    I am in Luck now.
    Posts
    63
    Yaar,
    i think this song is already present in the site search it with movie name
    aandhi .
    Hit me as hard as you can n I w'll hit you with duel
    force .

    Why ?

    Because I am BOOMRANG .

  3. #3
    prima is offline Newbie
    Join Date
    Jul 2007
    Posts
    22

    Tere bina zindagi se koi sikwa to nahi

    Movie - Aandhi
    Singers - Kishor kumar & Lata mangeshkar

    Tere bina zindagi se koi sikwa to nahi
    G |-------5-7-5-----5--------------------------------------------
    D |--5-6---------6-----6-5-5-----8-8-8-5-5-8-8-6---------------
    A |----------------------------6---------------------------------

    Sikwa nahi sikwa nahi sikwa nahi
    D |--5-----3-5-5-3--3-5-6-8-8-10-8-6-5-3-6-6-5-----------------
    A |-----6---------------------------------------------------------

    Tere bina zindagi bhi lekin zindagi to nahi
    SAME AS Tere bina zindagi se LINE

    Zindagi nahi zindagi nahi zindagi nahi
    SAME AS Sikwa nahi LINE

    Tere bina zindagi se sikwa to nahi
    G |-------5-7-5-----5---------------------------------------------
    D |--5-6---------6-----6-5-5-5-----8-8-5-------------------------
    A |-------------------------------6---------------------------------

    STANZA :-

    Kaash aisa ho tere kadmo se chunke manzil chalein
    G |--5-5-4-4-5-5-5-3-3-5-5-5---------5-5----------------------------
    D |--------------------------------7-7--------7--------------------------

    Aur kahin door kahin
    B |---------6-3-------------3------------------------------------------
    G |-----5--------3-3-5-5---------------------------------------------
    D |--7---------------------------------------------------------------

    Tu gar saath ho manzilon ki kami to nahi
    G |--7-7----------7-----------------2-----------------5---------------
    D |--------8-8-8-----7-7-7-5-3-5-----3-5-7-5-5-6------5------------

  4. #4
    debdip38 is offline Newbie
    Join Date
    Feb 2010
    Posts
    1
    v. good tab,really helpfull

 

 

Similar Threads

  1. Tere Bina Zindagi Se .... Chords
    By kkfan in forum Hindi Guitar Tabs - Submit or Request
    Replies: 3
    Last Post: 06-09-2010, 02:53 PM
  2. need TABS for TERE BINA ZINDAGI SE
    By sameerg85 in forum Hindi Guitar Tabs - Submit or Request
    Replies: 4
    Last Post: 08-13-2008, 07:14 AM
  3. Req: Tabs for TERE NINA ZINDAGI SE KOI SIKWA TO NHI
    By smartydart in forum Hindi Guitar Tabs - Submit or Request
    Replies: 1
    Last Post: 01-30-2008, 08:44 PM
  4. Tere bina zindagi se koi : Aandhi
    By VisOrchestraGrp in forum Hindi Guitar Tabs - Submit or Request
    Replies: 1
    Last Post: 10-11-2007, 02:09 AM
  5. Aandhi - Tere bina zindagi se koi
    By NuageOutlaw in forum Hindi Guitar Tabs - Submit or Request
    Replies: 5
    Last Post: 09-23-2005, 09:41 AM

Bookmarks

Posting Permissions

  • You may not post new threads
  • You may not post replies
  • You may not post attachments
  • You may not edit your posts
  •  
Single Sign On provided by vBSSO