Follow Us On Follow us on Facebook Follow us on Twitter Watch us on YouTube
Register
Results 1 to 4 of 4
  1. #1
    manu_munir is offline Newbie
    Join Date
    Jan 2005
    Posts
    2

    REQ: tabs of " o o jane jana" from Pyar kiya tou darna kya

    i was trying to find tabs of an old song ... i want the solo part in the beginning the "o o jane jana" from the film pyar kiya tou darna kya...
    if anyone can tell me the tabs of that song ... i will really apprecite it...
    thanx

  2. #2
    Subhro's Avatar
    Subhro is offline Argentina lost :"(
    Join Date
    Dec 2004
    Posts
    993

    Thumbs up

    hi manu..

    i think i postd them b4.. thr might be some more postd by othrs too.. search the forum & find the one tht suits u best..
    nyways postin them again..

    Intro for O O Jane Jana (Pyar Kiya to Darna Kiya)

    Code:
    E |-----------0-----0-----|-------------------------|
    B |---------------3---1---|---1h3-3-1---0-----------|
    G |---0h2-2-2-------------|-----------2---0h2-2p0---|
    D |-----------------------|-------------------------|
    A |-----------------------|-------------------------|
    E |-----------------------|-------------------------|
                                                                                  
    E |------------------|-----------0-----0-------------|
    B |-------0-0-0--0---|---------------3---1-3-0-1-----|
    G |---0-0------------|---0h2-2-2-----------------2---|
    D |------------------|-------------------------------|
    A |------------------|-------------------------------|
    E |------------------|-------------------------------|

    if u don find this good enugh search the forums.. ther must be some more too.. hav fun.
    Opinions are like a$$holes. Evrybdy has one.

    Soundclick: http://www.soundclick.com/bands/pagemusic.cfm?bandID=351260

  3. #3
    ramizraja1986 is offline Newbie
    Join Date
    Feb 2011
    Posts
    1
    hey tht does'nt wrk dude... !

  4. #4
    r0hit is offline Newbie
    Join Date
    Jul 2011
    Location
    indore
    Posts
    10
    check this,,,,
    hope u need this....

    tabs submission : o o jane jana-intro tabs

 

 

Similar Threads

  1. CHORDS & TABs>>>O O jaane jaana~pyar kiya to darna kya
    By rizz in forum Hindi Guitar Tabs - Submit or Request
    Replies: 4
    Last Post: 05-02-2013, 09:40 AM
  2. o o jane jana- pyar kiya to darna kya tabs
    By himohabbat_07 in forum Hindi Guitar Tabs - Submit or Request
    Replies: 3
    Last Post: 03-03-2011, 02:34 PM
  3. tabs reqired for "o o jane jana"
    By rahul_796 in forum Hindi Guitar Tabs - Submit or Request
    Replies: 1
    Last Post: 06-02-2007, 12:43 AM
  4. Needs tabs for "O O jane jaana"
    By talkjay83 in forum Hindi Guitar Tabs - Submit or Request
    Replies: 1
    Last Post: 05-10-2007, 04:13 PM
  5. Independence Day Special Tabs: NATIONAL ANTHEM - "Jana Gana Mana ..."
    By paranoid13rohan in forum Bengali Guitar Tabs - Submit or Request
    Replies: 4
    Last Post: 08-16-2006, 05:42 PM

Bookmarks

Posting Permissions

  • You may not post new threads
  • You may not post replies
  • You may not post attachments
  • You may not edit your posts
  •  
Single Sign On provided by vBSSO