Follow Us On Follow us on Facebook Follow us on Twitter Watch us on YouTube
Register
Results 1 to 15 of 15
  1. #1
    NisarS's Avatar
    NisarS is offline Newbie
    Join Date
    Oct 2004
    Location
    Chicago
    Posts
    3

    Req: TABs for Kumar Sano's latest solo album "Pehla Ye Pehla, Pyar Tera Mera"

    Req: {TABs / Lyrics / Chords} for Kumar Sano's latest solo album "Pehla Ye Pehla, Pyar Tera Mera".

  2. #2
    urmilus's Avatar
    urmilus is offline Newbie
    Join Date
    Jun 2004
    Location
    ahmedabad
    Posts
    37
    yes man dats da cool song..i need it too..pls help us guitar experts..
    [COLOR=DarkRed] La Devil

  3. #3
    urmilus's Avatar
    urmilus is offline Newbie
    Join Date
    Jun 2004
    Location
    ahmedabad
    Posts
    37

    lyrics

    thats music4eva's work i m just putin it here..

    Tera Mera Pyar:

    Ooohhh...
    Pehla yeh pehla/Pyar tera mera sony
    Pehli yeh mulaqat haiiii....*2
    JO keh rahi hai aankhein
    Woh keh rahi hai baatein
    Jaagi tu bhi saari raat haiiiii.....*2

    Pehlaaaaaaa.......hai pehlaaaa... Tera mera pyar

    Ooohhh... * 2

    Dil Pe chalaaa naa/ jab zor koiiiiiiii....
    Dil Pe chalaaa naa/ jab zor koi
    Tu mere Pas aa gayiiii
    hai, Main tere pas aa gayaaa...

    Pyaasi hai teri saansein...
    Pyaasi hai meri saansein...
    Uspe yeh barsat haiiiiii.... * 2

    Pehlaaaaaaa.......hai pehlaaaa... Tera mera pyar

    Hey.... ha ha ha...
    mmmm ahaa haa..

    Kab se te hum tum/ Tanha akeleeeeee...
    Kab se te hum tum/ Tanha akele
    Aaj Tujhe/ chain mil gayaa....
    Aaj mujhe chain mil gayaa....

    Baahon mein meri tum
    Baahon mein teri hum
    Aur yeh/ Jawaan raat haiiiiiii...
    Aur yeh/ Jawaan raat hai

    Pehlaaaaaaa.......hai pehlaaaa... Tera mera pyar

    (Guitar)

    Ruk si gayi hai... teri meri raaheeeeein
    Ruk si gayi hai/ teri meri raahein
    hum jo /saath aa gayeee
    hai, manzil ke pas aa gaye.

    Aaye the kahaan se donon?
    jaayenge kahaanpe donon?
    Yeh to ab/ kise yaad haiiiiii... *2

    Pehlaaaaaaa.......hai pehlaaaa... Tera mera pyar

    Pehla yeh pehla/ Pyar tera mera sony
    Pehli yeh/ mulaqat haiiii..... * 2
    JO keh rahi hai aankhein
    Woh keh rahi hai baatein
    Jaagi tu bhi/ saari raat hai.....*2

    Pehlaaaaaaa.......hai pehlaaaa... Tera mera pyar
    hai pehlaaaa... Tera mera pyar
    hai pehlaaaa... Tera mera pyaaaar

    Ooohhh...
    Ooohhh...
    =================================

    if anyone can tell me where can i get this song i will tab that. i hardly c tv these days n its been a time listenin to dat song. though i will still try.
    [COLOR=DarkRed] La Devil

  4. #4
    NisarS's Avatar
    NisarS is offline Newbie
    Join Date
    Oct 2004
    Location
    Chicago
    Posts
    3

    Still looking for it.... any help

    Still looking for it.... any help

  5. #5
    NisarS's Avatar
    NisarS is offline Newbie
    Join Date
    Oct 2004
    Location
    Chicago
    Posts
    3

    Re

    Any luck ???????

  6. #6
    rudra_joshi is offline Newbie
    Join Date
    Jan 2006
    Posts
    6
    Where Are The Tabs???

  7. #7
    piccolomair is offline Newbie
    Join Date
    Feb 2006
    Posts
    8
    seriously someone pleeze tab this song...i dont like bollywood, and dislike indian songs for teh most part, but jeez the guitar in this is....so awesome...someone tab....

  8. #8
    seriousvivek's Avatar
    seriousvivek is offline Beginner
    Join Date
    Dec 2005
    Posts
    56
    try this out
    |--------------------------------------------------|
    |-------5-4-5-4------4-----------------------------|
    |-----6--------------------------------------------|
    |---6-----------4-4--4-----------------------------|
    |-4------------------------------------------------|
    |--------------------------------------------------|


    |--------------------------------------------------|
    |--------------------------------------------------|
    |--------8---------8-------------------------------|
    |-6--9-8---8-------8-------------------------------|
    |---------------6----------------------------------|
    |-------------6------------------------------------|

    |--------------6-7-6-------------------------------|
    |-------5-4-5--------4-----------------------------|
    |-----6--------------------------------------------|
    |---6----------------------------------------------|
    |-4------------------------------------------------|
    |--------------------------------------------------|


    |------------6-7-6---------------------------------|
    |------------------4-------------------------------|
    |--------8-----------------------------------------|
    |-6--9-8---8---------------------------------------|
    |--------------------------------------------------|
    |--------------------------------------------------|

  9. #9
    g_kepnrock's Avatar
    g_kepnrock is offline Newbie
    Join Date
    Sep 2006
    Posts
    15
    it's a nice song by Sanu...

    But whr d cords ...

  10. #10
    rashu999 is offline Newbie
    Join Date
    Apr 2008
    Posts
    1
    i cnt understand these tabs...cn anybdy help me??hw to play these??

  11. #11
    suhzar is offline Newbie
    Join Date
    May 2008
    Posts
    6
    i have tabbed this song in a different key which works quite well because it uses a lot of open strings. it's in my recent tera mera pyar thread

  12. #12
    axe_krap's Avatar
    axe_krap is offline Newbie
    Join Date
    Jun 2008
    Location
    kerala!!!gods own conutry
    Posts
    2
    vivek!!!!gud wrk man!!!!!it sounds jus perfecto!!!!!

  13. #13
    myfavguitar is offline Newbie
    Join Date
    Jun 2009
    Posts
    1
    Hi,
    New member, i was keen to find the tabs for kumar sanu, but the one posted here are very difficult to play as they are played on all strings of vaious frets across the fret board. If there is any genius musician who can re-discover this song with 2 strings it would be much easier i guess. Anyways best of luck for inventing the tabs.

  14. #14
    neal_killer is offline Newbie
    Join Date
    Jan 2009
    Location
    Delhi
    Posts
    43

    here the chords for pehla ye pehla by kumar sanu

    Pehla ye pehla
    (G#m)

    pyaar tera mera soni
    (F#)

    Pehli ye mulakat hai
    (G#m)

    Jo keh rahi hai ankhen
    (G#m)

    wo keh rahi hai baatein
    (F#)

    Jaagi tu bhi saari raat hai
    (G#m)

    Pehla aaaaaa aaa
    (G#m)

    hayeee pehla
    (F#)

    tera mera pyaar
    (G#m)

  15. #15
    Join Date
    May 2009
    Posts
    1

    hi

    Quote Originally Posted by seriousvivek View Post
    try this out
    |--------------------------------------------------|
    |-------5-4-5-4------4-----------------------------|
    |-----6--------------------------------------------|
    |---6-----------4-4--4-----------------------------|
    |-4------------------------------------------------|
    |--------------------------------------------------|


    |--------------------------------------------------|
    |--------------------------------------------------|
    |--------8---------8-------------------------------|
    |-6--9-8---8-------8-------------------------------|
    |---------------6----------------------------------|
    |-------------6------------------------------------|

    |--------------6-7-6-------------------------------|
    |-------5-4-5--------4-----------------------------|
    |-----6--------------------------------------------|
    |---6----------------------------------------------|
    |-4------------------------------------------------|
    |--------------------------------------------------|


    |------------6-7-6---------------------------------|
    |------------------4-------------------------------|
    |--------8-----------------------------------------|
    |-6--9-8---8---------------------------------------|
    |--------------------------------------------------|
    |--------------------------------------------------|
    hi dude how r u,this is kishore do u have a lead for kaho na pyaar hai

 

 

Similar Threads

  1. requried:solo of mera pehla pehla pyar(MP3)
    By maaani in forum Hindi Guitar Tabs - Submit or Request
    Replies: 1
    Last Post: 07-31-2007, 01:09 AM
  2. neeeed solo start from 2:21 in mera pehla pehla pyar(mp3)
    By maaani in forum Hindi Guitar Tabs - Submit or Request
    Replies: 3
    Last Post: 07-31-2007, 01:03 AM
  3. chords for Kumar Sanu's "tera mera pehla pyaar"
    By Madni in forum Hindi Guitar Tabs - Submit or Request
    Replies: 4
    Last Post: 06-03-2005, 09:30 PM
  4. Chords for song pehla yeh pehla piyar tera mera soni by kumar sanoo
    By shabbii2 in forum Hindi Guitar Tabs - Submit or Request
    Replies: 0
    Last Post: 06-03-2005, 01:43 AM
  5. need tabs for pehla yeh pehla piyar tera mera soni (by kumar sano )
    By shabbii2 in forum Hindi Guitar Tabs - Submit or Request
    Replies: 0
    Last Post: 05-31-2005, 01:09 AM

Bookmarks

Posting Permissions

  • You may not post new threads
  • You may not post replies
  • You may not post attachments
  • You may not edit your posts
  •  
Single Sign On provided by vBSSO