Follow Us On Follow us on Facebook Follow us on Twitter Watch us on YouTube
Register
Results 1 to 11 of 11
  1. #1
    himohabbat_07 is offline Newbie
    Join Date
    Mar 2007
    Posts
    49

    Smile Req: jan gan man tabs

    jan gan man tabs plzzzz

  2. #2
    madhureshnitw is offline Newbie
    Join Date
    Jan 2008
    Posts
    1

    Jan Gan Man Indian Anthem Guitar Tabs.....

    E----0--2--4-4-4-4-4--4-4-4--4-4--2--4--5----4--4-4--2--2-2---2-0-
    B-----------------------------------------------------------4-----
    G-----------------------------------------------------------------
    D-----------------------------------------------------------------
    A-----------------------------------------------------------------
    E-----------------------------------------------------------------


    E----0--7--7-7-7--7-7-7-7-7--7-6-7----5--5-5----4--4-4----2-5-4----4--4-4--2--2-2--7--7-7--5-5-
    B----------------------------------------------------------------------------------------------
    G----------------------------------------------------------------------------------------------
    D----------------------------------------------------------------------------------------------
    A----------------------------------------------------------------------------------------------
    E----------------------------------------------------------------------------------------------


    E----4--4-4--2--2-2---2-0-
    B-------------------4-----
    G-------------------------
    D-------------------------
    A-------------------------
    E-------------------------


    E----0--2--4-4-4--4-4-4--4-4-4--2-4-5--4--4-4--2--2-2---2-0-
    B-----------------------------------------------------2-----
    G-----------------------------------------------------------
    D-----------------------------------------------------------
    A-----------------------------------------------------------
    E-----------------------------------------------------------


    E----7-7-7-7-7-7-7--7-7-7--7-6-7--5--5-5--5--5-5--2-5-4----12-11-12----11-9-11----9-7-9-
    B---------------------------------------------------------------------------------------
    G---------------------------------------------------------------------------------------
    D---------------------------------------------------------------------------------------
    A---------------------------------------------------------------------------------------
    E---------------------------------------------------------------------------------------

    E----0---2---4----2-h-4-/-5------------------------------------------------------------

  3. #3
    naidrefr is offline Banned
    Join Date
    Jul 2008
    Posts
    3
    Bhaarat Maata Ki Jay

  4. #4
    Sastry is offline Beginner
    Join Date
    Dec 2007
    Location
    New Jersey
    Posts
    50

    Keyboard Notation/Tabs for Indian National Anthem

    Guys,
    I found the tabs for Indian National Anthem posted by a member in this forum. ALL CREDITS GOES TO THE ORIGINAL MUSICIAN.

    I converted them to keyboard notation. My daughter played on Piano and I am still practicing on my guitar. I feel it very difficult, but will learn very soon.

    Enjoy the music on your favourite instrument...HAPPY INDEPENDENCE DAY...
    ***************************************
    Song : Jana Gana Mana Indian National Anthem Page 1
    Courtsey: IndianGuitartabs.com (Member)

    Carnatic: Sa Ri Ga Ma Pa Da Ni Sa(h)
    Western: (A B C D E F G A(H) )



    E|--------0--0--0--0--0--0-0-0-0-----0--1------------|
    B|--1--3---------------------------3-----------------|

    Jana gana mana adhinayaka, jaya he
    c , , d e , , e , , e , , e , , e , , e e e e d e , , f



    E|---0--0--0-----------------------------------------|
    B|-------------3---3---3-0-3-1-----------------------|
    Bharata bhagya vidhata
    e , , e , , e d , , d , , d b d c



    E|-------3-3---3---3----3-3-3-3----3-3/5-1----------|
    B|---1-1---------------------------------------------|
    Punjab Sindhu Gujarata Maratha
    c c g g g , , g , , g , , g g g , , g g/a f



    E|---1-1-1-----1-1-0---------1-0---------------------|
    B|-------------------3-----3-------------------------|
    Dravida Utkala Banga
    f f f , , , , f f e d , , d , , f e


    E|----0----0------0-0-------0-3-3-5---1-1------------|
    B|--------------3-----3------------------------------|
    Vindhya Himachala Yamuna Ganga
    e , , e , , d e , , e , , d e g g a, , f f



    E|---0--0--0----0--0---------------------------------|
    B|--------------------3----3-0-3-1-------------------|
    Uchchala Jaladhi taranga
    e e , , e e e d , , d b d c




    E|---------0--0-----0-0------1-----------------------|
    B|--1-3--------------------3-------------------------|
    Tava shubha name jage
    c d e e , , e e , , d f



    E|--0-1---3--3----3-1-0------1-0---------------------|
    B|-------------------------3-------------------------|
    Tava shubha ashish maange
    e f g g g , , f e d f e, ,


    E|--1-0--0-0-----------------------------------------|
    B|-------------3-3---0-3-1---------------------------|
    Gahe tava jaya gatha
    f e , , e e d d , , b d c


    E|--------3--3--3--3-------3-3--3-3-3--5-------------|
    B|--1-1------------------5---------------------------|
    Jana gana mangala dayaka jaya he
    c c g , , g , , g , , g e g g g g g , , a


    E|---1-1-1----1-1-----0---1-0------------------------|
    B|----------------------3----------------------------|
    Bharata bhagya vidhata
    f f f , , f f , , e d f e



    E|---------8---7-5--7----5-3-5-----------------------|
    B|----5-8--------------------------------------------|
    Jaya he, jaya he, jaya he
    e g c, , b a b , , a g a


    E|----------------0-0------0-1-----------------------|
    B|------1-1--3-3---------3---------------------------|
    Jaya jaya jaya, jaya he
    c c , , d d e e d e f, ,






    *********************************
    -Sastry Karra
    "Religions are Many, But Nation is ONE.....BE PROUD TO BE AN INDIAN"

  5. #5
    naidrefr is offline Banned
    Join Date
    Jul 2008
    Posts
    3
    Bhaarat Maata Ki Jay

  6. #6
    aniketdave's Avatar
    aniketdave is offline aniket
    Join Date
    Oct 2007
    Location
    India
    Posts
    91

    Talking Happy Independene Day!

    Jai Hind!

    Great Tabs BTW

  7. #7
    music_lover08 is offline Newbie
    Join Date
    Aug 2008
    Posts
    3
    Good Job Buddy!

  8. #8
    snake eyes is offline Newbie
    Join Date
    Feb 2009
    Posts
    3
    Dhanyawaad

  9. #9
    geet2i is offline Newbie
    Join Date
    Apr 2009
    Posts
    2

    Doesn't this sound better?

    E----0--2--4-4-4-4-4--4-4-4--4-4--2--4--5----4--4-4--2--2-2---2-0-
    b-----------------------------------------------------------4-----
    g-----------------------------------------------------------------
    d-----------------------------------------------------------------
    a-----------------------------------------------------------------
    e-----------------------------------------------------------------


    e----0--7--7-7-7--7-7-7-7-7--7-6-7----5--5-5----4--4-4----2-5-4----4--4-4--2--2-2--7--7-7--5-5-
    b----------------------------------------------------------------------------------------------
    g----------------------------------------------------------------------------------------------
    d----------------------------------------------------------------------------------------------
    a----------------------------------------------------------------------------------------------
    e----------------------------------------------------------------------------------------------


    e----4--4-4--2--2-2---2-0-
    b-------------------4-----
    g-------------------------
    d-------------------------
    a-------------------------
    e-------------------------

    e----0--2--4-4-4-4---2-4-5--4-5-7-7-7-7-7-5---5-4-4-4-2-2-2-0---2-0---
    b-------------------------------------------7-----------------4-------
    g---------------------------------------------------------------------
    d---------------------------------------------------------------------
    a---------------------------------------------------------------------
    e---------------------------------------------------------------------

    e----7-7-7-7-7-7-7--7-7-7--7-6-7--5--5-5--5--5-5--2-5-4----12-11-12----11-9-11----9-7-9-
    b---------------------------------------------------------------------------------------
    g---------------------------------------------------------------------------------------
    d---------------------------------------------------------------------------------------
    a---------------------------------------------------------------------------------------
    e---------------------------------------------------------------------------------------

    e----0---2---4-4-4-4-4-4---2-4-5--------------------------------------------------------

  10. #10
    khushalbhadra is offline Beginner
    Join Date
    Jan 2009
    Posts
    54
    Not able to figure out the chords by the way any help would be appreciated.

  11. #11
    Join Date
    Nov 2008
    Location
    Indiyeah!
    Posts
    259

    Chords figured out

    Quote Originally Posted by khushalbhadra View Post
    Not able to figure out the chords by the way any help would be appreciated.
    Read this post:

    http://desichords.blogspot.com/2009/...al-anthem.html
    __________________________________________________________________________
    My Guitar Blogs:

    DesiChords . blogspot . com
    BanglaChords . blogspot . com
    BasicMusicTheory . blogspot . com

 

 

Bookmarks

Posting Permissions

  • You may not post new threads
  • You may not post replies
  • You may not post attachments
  • You may not edit your posts
  •  
Single Sign On provided by vBSSO