Follow Us On Follow us on Facebook Follow us on Twitter Watch us on YouTube
Register
Results 1 to 4 of 4
  1. #1
    karthik_b's Avatar
    karthik_b is offline Newbie
    Join Date
    Jan 2004
    Location
    mumbai
    Posts
    11

    Question REQ: chords for mai koi aisa geet gaaoo( yes boss)

    please can someone give me the chords for mai koi aisa geet gaaoo from yes boss. i shall be really thankful .

  2. #2
    FinalPhase is offline Beginner
    Join Date
    Aug 2003
    Posts
    71

    Yes Boss - Mein Koi Aaisa Geet Gaoun

    Yes Boss - Mein Koi Aaisa Geet Gaoun


    E-5-7-5-9--9-9-5-5-5------------------------
    G-------------------------------------------
    D-------------------------------------------
    A-------------------------------------------
    E-------------------------------------------
    Mein Koi Aaisa Gheet Gaoun

    E-5-9-9-9---5-5-5---------------------------
    G-------------------------------------------
    D-------------------------------------------
    A-------------------------------------------
    E-------------------------------------------
    Ke Arrzoo Jagaoun

    E-5-7-5-9--9-9-5-5-5------------------------
    G-------------------------------------------
    D-------------------------------------------
    A-------------------------------------------
    E-------------------------------------------
    Mein Koi aaisa gheet Gaoun

    E-5-9-9-9---5-5-5---------------------------
    G-------------------------------------------
    D-------------------------------------------
    A-------------------------------------------
    E-------------------------------------------
    Ke Arrzo Jagaoun

    E-7-2---2-4--4-5----------------------------
    G-------------------------------------------
    D-------------------------------------------
    A-------------------------------------------
    E-------------------------------------------
    Ager Tum Kaho

    E-12-12--9-10-7-----------------------------
    G-------------------------------------------
    D-------------------------------------------
    A-------------------------------------------
    E-------------------------------------------
    Tum Ko bulaoun

    E-12-12-12-12-9-10-7------------------------
    G-------------------------------------------
    D-------------------------------------------
    A-------------------------------------------
    E-------------------------------------------
    Ke palkein jukaoun

    E-12-12-14-14-10-10-10-12-10-12-10-9-7------
    G-------------------------------------------
    D-------------------------------------------
    A-------------------------------------------
    E-------------------------------------------
    Kadam tum jahan jahan rakhoun

    E-5-7-5-9--9-9-5-5-5------------------------
    G-------------------------------------------
    D-------------------------------------------
    A-------------------------------------------
    E-------------------------------------------
    Zameen ko Assman Banaoun

    E-5-9-9-9---5-5-5---------------------------
    G-------------------------------------------
    D-------------------------------------------
    A-------------------------------------------
    E-------------------------------------------
    Sitaroun se sajaoun

    E-7-2---2-4--4-5----------------------------
    G-------------------------------------------
    D-------------------------------------------
    A-------------------------------------------
    E-------------------------------------------
    Ager Tum Kaho



    this is not my tabs....:p

  3. #3
    FinalPhase is offline Beginner
    Join Date
    Aug 2003
    Posts
    71

    Yes Boss - Mein Koi Aaisa Geet chords

    Yes Boss - Mein Koi Aaisa Geet chords


    G C G
    Main koi aisa geet gaon

    C C
    Ki aarzoo jagaon

    C Am D
    Agar tum kahon....

    Repeat same lines with same chords...

    C G
    Tum ko boolaon

    C G
    Palkein ke sajadoon

    C Am D G
    Kadam tum jahan jahan rakho

    G C G
    Zameen ko aasmaa banaoon

    C G
    Sitaron se sajaon

    C Am D
    Agar tum kahon...

  4. #4
    neilarmstrong is offline Newbie
    Join Date
    Apr 2009
    Posts
    2
    I think in the tab part it should be -5-7-7 instead of -5-5-5-

    E-5-7-5-9--9-9-5-7-7------------------------
    G-------------------------------------------
    D-------------------------------------------
    A-------------------------------------------
    E-------------------------------------------

 

 

Similar Threads

  1. Mai koi aisa geet gau recording
    By sarang_cool in forum IGT Soundtrack - Your Band, Your Gig, Your Music
    Replies: 2
    Last Post: 12-06-2005, 07:54 AM
  2. Mai Koi aisa geet gaoo (Yes Boss) chords
    By sarang_cool in forum Hindi Guitar Tabs - Submit or Request
    Replies: 6
    Last Post: 11-25-2005, 01:27 AM
  3. main koi aisa geet gaun
    By abhimanjrekar in forum Hindi Guitar Tabs - Submit or Request
    Replies: 9
    Last Post: 10-24-2005, 09:29 PM
  4. Keyboard Notes: Mein Koi Aisa Geet Gaon (Yes Boss)
    By batliwala in forum Misc Musical Instruments
    Replies: 0
    Last Post: 10-24-2005, 11:43 AM
  5. mein koi aisa geet gaon-----yes boss
    By crideep12886 in forum Hindi Guitar Tabs - Submit or Request
    Replies: 1
    Last Post: 12-18-2004, 08:04 PM

Bookmarks

Posting Permissions

  • You may not post new threads
  • You may not post replies
  • You may not post attachments
  • You may not edit your posts
  •  
Single Sign On provided by vBSSO