Follow Us On Follow us on Facebook Follow us on Twitter Watch us on YouTube
Results 1 to 7 of 7
  1. #1
    scorpionhai is offline Newbie
    Join Date
    Jun 2004

    req. chord of song PAL by KK

    hizz yaar i want to perform song of KK and song name is PAL . can u plz send me the tabs and chord and stramming pattern of this songg ...... plzzzz sir my performance is on 12 jan plz.

  2. #2
    jayswami's Avatar
    jayswami is offline Blue J
    Join Date
    Nov 2004
    search this forum. u will get at least half a dozen hits.

  3. #3
    chordMinor is offline Newbie
    Join Date
    Jan 2005
    Ha[E]m rahen ya na r[F#m]ahen kal
    K[A]al yaad aayenge [B]ye pal
    P[E]al ye hain pyaar [F#m]ke pal
    Ch[A]al aa mere sang[B] chal

    C[C#m]hal soche k[B]ya chhoti s[A]i hai jin[B]dagi
    k[C#m]al mil jaaye[B]n to hogi kh[A]ushnase[E]ebi

    Sh[Emaj7]am ka [Amaj7]aanchal l[Emaj7]e ke a[Amaj7]ayi
    L[Emaj7]e ke aa[Amaj7]yi dek[E]ho ye ra[A]at suha[B]ani - repeat

    I apologise for the chord format. I used chordpro manager and this is the best it could do for me. :-(. If you havent got it already, the chords are written in appropriate spaces within square brackets. I dont have a guitar with me and written this by memory, so it might have a bit of inaccuracy. Also for you benefit i am producing two of the chord patterns used here

    Amaj7 Emaj7

  4. #4
    Gai is offline Newbie
    Join Date
    Aug 2004
    the chords are easy enuf to get....but what u never find is that beautiful solo...anyone have that?

  5. #5
    bhavna's Avatar
    bhavna is offline Newbie
    Join Date
    Apr 2005
    hey i have started the song 4m G chrd i need the antara part anybody...............

  6. #6
    Join Date
    Mar 2005
    The opening chords are arpeggiated E, A, B, C#m)
    E A
    Hum rahe ya na rahe kal
    A B
    Kal yaad aayenge yeh pal
    E A
    Pal, yeh hain pyaar ke pal
    A B
    Chal, aa mere sang chal
    C#m B
    Chal, soche kya
    A E
    Chhoti si hai zindagi
    C#m B A B
    Kal mil jaaye to hogi khushnaseebi
    E A B E
    Hum rahe ya na rahe, yaad aayenge yeh pal

    G#m A G#m A
    Shaam ka aanchal odhke aayi
    F#m B E
    Dekho voh raat suhaani
    G#m A G#m A
    Aa likh de hum donon milke
    F#m B
    Apni yeh prem kahaani
    Hum rahe ya na rahe, yaad aayenge yeh pal

    Aane waali subah jaane
    Rang kya laaye deewaani
    Meri chaahat ko rakh lena
    Jaise koi nishaani
    Hum rahe ya na rahe, yaad aayenge yeh pal__________________

    Dm F
    chal ... sochein kya ...
    Bb Gm F
    chhoti si hai zindagi

    Dm F
    kal ... mil jayee
    Bb Gm F
    to hogi .. khushnaseebi

    F Bb
    Hum rahein ya na rahein kal
    Gm F
    pal yaad ayenge Yeh pal

    E |------------------------------------------------------------------------|
    B |------------------------------------------------------------------------|
    G |--------------s-------s---------s--------s-----------s---------s--------|
    D |-----s--2----4/6-----4/6--4----6/7-----9/11--9-----4/6--4----2/4------|
    A |----2/4---4-----------------7------------------------------7-----------|
    E |------------------------------------------------------------------------|

    E |--------------------------------------------------|
    B |--------------------------------------------------|
    G |--------------s-------s---------s-------s---------|
    D |-----s--2----4/6-----4/6--4----6/7-----9/11--9---|
    A |----2/4---4-----------------7---------------------|
    E |--------------------------------------------------|

    E |----------------------------------------------------|
    B |----------------------------------------------------|
    G |------------4---------------------------------------|
    D |----4(h)6-6----4(h)6-4---------------2-----2---2---|
    A |-----------------------7-----2(h)4-4---4-----4-----|

    try ths n let me know.....cant say abut chords but i think the solo is gud...

  7. #7
    sayanakaharry's Avatar
    sayanakaharry is offline Forum Leader
    Join Date
    Jul 2004
    good work.



Similar Threads

  1. Chord pickout! Check the chord from any song...
    By GNR_fan in forum Computer Forum
    Replies: 4
    Last Post: 01-31-2009, 12:54 PM
  2. Anyone know these unknown song name chord?
    By guitarist_bd in forum Bengali Guitar Tabs - Submit or Request
    Replies: 2
    Last Post: 08-21-2008, 04:36 PM
  3. Different Beats For Each Song Chord?
    By danger_zone in forum Hindi Guitar Tabs - Submit or Request
    Replies: 2
    Last Post: 09-05-2006, 02:50 PM
  4. want a song chord
    By jawadkibilli in forum Pakistani Guitar Tabs - Submit or Request
    Replies: 0
    Last Post: 02-05-2006, 01:30 PM


Posting Permissions

  • You may not post new threads
  • You may not post replies
  • You may not post attachments
  • You may not edit your posts
Single Sign On provided by vBSSO