Follow Us On Follow us on Facebook Follow us on Twitter Watch us on YouTube
Register
Results 1 to 8 of 8
  1. #1
    kevinbala's Avatar
    kevinbala is offline Newbie
    Join Date
    Feb 2005
    Location
    Sydney
    Posts
    4

    Pukarta Chala Hoon Main Tabs

    Pukarta Chala Hoon Main Tabs - This should be 100% accurate

    Chords used:

    c#m - x46654
    B - x24442


    Intro
    e------------------------------------------9-12-11-11----11-9-9----------
    B-9-9-------------9-9----------------10-10------------12--------10-12-9-
    G-----9-------9-9-----11-9-8-8-11-11------------------------------------
    D-------11-11------------------------------------------------------------
    A-------------------------------------------------------------------------
    E-------------------------------------------------------------------------


    e---12-11-12---9-11-12-11---------9-11-14-------------------
    B-9-----------------------12---12------------9-10-12-9-------
    G-------------------------------------------------------------
    D-------------------------------------------------------------
    A-------------------------------------------------------------
    E-------------------------------------------------------------


    e-11-9--------------------------------------
    B------12-10-9-10-9-10---------------------
    G-----------------------9----9--11/13-------
    D-------------------------11----------------
    A--------------------------------------------
    E--------------------------------------------

    e-11-9--------------------------------------
    B------12-10-9-10-9-10---------------------
    G-----------------------9----9--11/13-------
    D-------------------------11----------------
    A--------------------------------------------
    E--------------------------------------------


    e-----------------------------------------
    B-----------------------------------------
    G---13-11----11-13-11-8-9-11-9-8-6------
    D---------13------------------------------
    A-----------------------------------------
    E-----------------------------------------


    C# B C#
    pukaarataa chalaa hoo mai, galee galee bahaar kee
    B C# X2
    bas yek chhaanw julf kee, bas yek nigaah pyaar kee



    e----------------------------------------
    B------7----------------7----------------
    G---/8---8------------8---8-9-8-9-8-9---
    D----------9-8-9-8-9--------------------
    A----------------------------------------
    E----------------------------------------


    e------9-8---8--8---14-11-12--11-12-11-12--
    B----7-----9--9---9--------------------------
    G--8-----------------------------------------
    D--------------------------------------------
    A--------------------------------------------
    E--------------------------------------------


    e----11-12-11-----------11---------------------------------------
    B-14----------12--12-14----14-11--11-12-14-12-11--------------9-
    G--------------------------------------------------13-11-9-11-9---
    D------------------------------------------------------------------
    A------------------------------------------------------------------
    E-----------------------------------------------------------------

    C# B C#
    ye dillagee ye shaukhiyaan salaam kee


    e----9-12-9---
    B--9----------
    G-------------
    D-------------
    A-------------
    E-------------


    C# B
    yahee to baat ho rahee hain kaam kee

    e----9-12-11--
    B--9----------
    G-------------
    D-------------
    A-------------
    E-------------


    B
    koee to mud ke dekh legaa is taraf

    C#
    koee najar to hogee mere naam kee



    sunee meree sadaa to kis yakin se
    ghataa utar ke aa gayee jameen pe
    rahee yahee lagan to aye dila-ye-jawaan
    asar bhee ho rahegaa yek haseen pe

    *I hope thats the whole song ive tabbed out, im just doing it by memory.. My parents made me learn this song.. lol
    *P.s- Dunno about the accuracy of the Lyrics- I got it from some site*

    If u have any questions feel free to email me - [SNIP]
    If u have requests, i cannot guarantee anything, this is probably the only full hindi song i know... i can ask my parents if they have the song, and il try my best..

  2. #2
    kevinbala's Avatar
    kevinbala is offline Newbie
    Join Date
    Feb 2005
    Location
    Sydney
    Posts
    4
    has anyone found this useful? some feedback would be nice....

  3. #3
    chandu15's Avatar
    chandu15 is offline Newbie
    Join Date
    Dec 2004
    Location
    Utopia, ;)
    Posts
    42
    hmmm, kevin, u ll probably 've have to wait, seems everyone is busy with academics or job these days. neway, shall try it soon and get back
    Bitten by the BUG,
    realise IMPOSSIBLE IS NOTHIN'

  4. #4
    atulansaha is offline Tabber
    Join Date
    Feb 2004
    Location
    India
    Posts
    205
    some vital chords seem to be missing...the tabs for the intro r perfect!
    also the chords for "bas ek chahon zulf ki" is incorrect...

  5. #5
    madhura is offline pani poori yum yum ....
    Join Date
    Oct 2004
    Posts
    169
    check out mine and the whole discussion by pros ....
    i'll try urs later this week.
    http://indianguitartabs.com/showthre...light=pukarata

  6. #6
    kevinbala's Avatar
    kevinbala is offline Newbie
    Join Date
    Feb 2005
    Location
    Sydney
    Posts
    4
    ohh sorry.. didnt realise, on the orignal i typed at home, the chords were aligned with the lyrics...

  7. #7
    kevinbala's Avatar
    kevinbala is offline Newbie
    Join Date
    Feb 2005
    Location
    Sydney
    Posts
    4
    this good no?

  8. #8
    juliustalent is offline Guitarist
    Join Date
    May 2013
    Posts
    100

 

 

Similar Threads

  1. Tabs for Pukarta Chala Hoon Main
    By upneja in forum Hindi Guitar Tabs - Submit or Request
    Replies: 2
    Last Post: 05-01-2013, 04:05 PM
  2. Want Tab for Pukarta Chala Hoon Main
    By __kunal in forum Hindi Guitar Tabs - Submit or Request
    Replies: 3
    Last Post: 05-01-2013, 04:04 PM
  3. Chords - Pukarta chala hoon main
    By rodin in forum Hindi Guitar Tabs - Submit or Request
    Replies: 3
    Last Post: 05-01-2013, 04:03 PM
  4. pukarta chala hoon main chords
    By apar_mathur in forum Hindi Guitar Tabs - Submit or Request
    Replies: 8
    Last Post: 05-01-2013, 04:03 PM
  5. req: strumming for pukarta chala hoon main
    By virat_123 in forum Hindi Guitar Tabs - Submit or Request
    Replies: 4
    Last Post: 02-14-2009, 01:54 PM

Bookmarks

Posting Permissions

  • You may not post new threads
  • You may not post replies
  • You may not post attachments
  • You may not edit your posts
  •  
Single Sign On provided by vBSSO