Follow Us On Follow us on Facebook Follow us on Twitter Watch us on YouTube
Register
Results 1 to 7 of 7
  1. #1
    boxer's Avatar
    boxer is offline Beginner
    Join Date
    Mar 2005
    Posts
    65

    oh ho jane jana tabs

    hello guyzz..this is the tab of ohh hoo jane jana...

    intro:

    -----9-7-9-7-7-5------------
    ----7-----------------------
    ----------------------------
    ----------------------------
    ----------------------------
    ----------------------------

    ---5-7-7--------------------
    ---------7-7-9-7-5----------
    ----------------------------
    ----------------------------
    ----------------------------
    ----------------------------

    ------------------------------
    ----5-5/9-9-9-9-12-12-9-9-7-5-
    ------------------------------
    ------------------------------
    ------------------------------
    ------------------------------

    yar guyz ending line is not gud so plzz make it correct..and rest of the one is ok
    have fun and do reply me if it is gud..

  2. #2
    smilewithme5 is offline Newbie
    Join Date
    Apr 2005
    Posts
    7

    see this one

    E------------------0-------0----------
    B-----------------------3------1-------
    G----0h2--2--2-----------------------


    E----------------------------------------
    B--1h3----3---0-----0-----------------
    G------------------2------0h2--2/0----


    E------------------------------------------
    B-------0-0---0--0--0-0---0-----------
    G---0-------------------------------------


    E---------------0------0----0-------------
    B-------------------3-----1----0----------
    G--0h2--2--2---------------------0----2-





    Quote Originally Posted by boxer
    hello guyzz..this is the tab of ohh hoo jane jana...

    intro:

    -----9-7-9-7-7-5------------
    ----7-----------------------
    ----------------------------
    ----------------------------
    ----------------------------
    ----------------------------

    ---5-7-7--------------------
    ---------7-7-9-7-5----------
    ----------------------------
    ----------------------------
    ----------------------------
    ----------------------------

    ------------------------------
    ----5-5/9-9-9-9-12-12-9-9-7-5-
    ------------------------------
    ------------------------------
    ------------------------------
    ------------------------------

    yar guyz ending line is not gud so plzz make it correct..and rest of the one is ok
    have fun and do reply me if it is gud..

  3. #3
    Subhro's Avatar
    Subhro is offline Argentina lost :"(
    Join Date
    Dec 2004
    Posts
    993
    Request: O o jaane Jaana ...... Intro Tab
    @smilewithin.. did u paste my tabs.. ? they look absolutely similar xcept 4 da 3 notes b4 da last 1. nywayz.. make da necesssary corrections..
    Opinions are like a$$holes. Evrybdy has one.

    Soundclick: http://www.soundclick.com/bands/pagemusic.cfm?bandID=351260

  4. #4
    Khopdi's Avatar
    Khopdi is offline Guitarist
    Join Date
    Dec 2004
    Location
    Oneonta, New York
    Posts
    177
    how on earth do you slide from a 2 to 0 ...???
    If Information is Power, then inspiration must be the Power of potential. The Power that moves us from the systematic to the spontaneous!

    ::..::Member of the Stunt Crew::..::Founder of the SOD - Souls of Darkeness::..::

  5. #5
    Khopdi's Avatar
    Khopdi is offline Guitarist
    Join Date
    Dec 2004
    Location
    Oneonta, New York
    Posts
    177

    Highlight

    Quote Originally Posted by smilewithme5
    E------------------0-------0----------
    B-----------------------3------1-------
    G----0h2--2--2-----------------------


    E----------------------------------------
    B--1h3----3---0-----0-----------------
    G------------------2------0h2--2/0----


    E------------------------------------------
    B-------0-0---0--0--0-0---0-----------
    G---0-------------------------------------


    E---------------0------0----0-------------
    B-------------------3-----1----0----------
    G--0h2--2--2---------------------0----2-
    Thought I'd highlight it...
    If Information is Power, then inspiration must be the Power of potential. The Power that moves us from the systematic to the spontaneous!

    ::..::Member of the Stunt Crew::..::Founder of the SOD - Souls of Darkeness::..::

  6. #6
    Subhro's Avatar
    Subhro is offline Argentina lost :"(
    Join Date
    Dec 2004
    Posts
    993

    i'm sure thr'z a 'p' in betwn.. (pull-off).. smilewithme missd it by mistake..
    take a peek at the link i gave.. u'll find it thr..
    Opinions are like a$$holes. Evrybdy has one.

    Soundclick: http://www.soundclick.com/bands/pagemusic.cfm?bandID=351260

  7. #7
    6string_addict's Avatar
    6string_addict is offline * Addicted Guitarist *
    Join Date
    Apr 2005
    Location
    india
    Posts
    251


    John

 

 

Similar Threads

  1. Tabs for oo jane jana
    By stupidshashank in forum Hindi Guitar Tabs - Submit or Request
    Replies: 4
    Last Post: 05-02-2013, 09:43 AM
  2. o o jane jana- pyar kiya to darna kya tabs
    By himohabbat_07 in forum Hindi Guitar Tabs - Submit or Request
    Replies: 3
    Last Post: 03-03-2011, 03:34 PM
  3. tabs of OOO Jane Jan Zara ruk jana
    By HeartsCracker in forum Hindi Guitar Tabs - Submit or Request
    Replies: 0
    Last Post: 02-07-2005, 11:17 PM
  4. Need Tabs of Oo Jane Jana zara ruk jana
    By heartshacker in forum Pakistani Guitar Tabs - Submit or Request
    Replies: 3
    Last Post: 02-04-2005, 05:01 AM
  5. Req: Tabs of Oo jane jana zara ruk jana
    By heartshacker in forum Hindi Guitar Tabs - Submit or Request
    Replies: 0
    Last Post: 01-13-2005, 11:49 PM

Bookmarks

Posting Permissions

  • You may not post new threads
  • You may not post replies
  • You may not post attachments
  • You may not edit your posts
  •  
Single Sign On provided by vBSSO