Follow Us On Follow us on Facebook Follow us on Twitter Watch us on YouTube
Register
Results 1 to 3 of 3
  1. #1
    purvi is offline Newbie
    Join Date
    Oct 2007
    Posts
    5

    Notations of mera haath mein tera haath ho from fanaa [lead notations]

    hi
    i am a new entry
    guitar has been my passion i am not very good at chords but i am doing well with leadd i need the notations of
    mera haath mein tera haath ho from fanaa[[lead notations]
    mein yahan mein yahan from veer zara

  2. #2
    koolg's Avatar
    koolg is offline Newbie
    Join Date
    Mar 2007
    Posts
    25
    Hi!! here is the tab of one song u askd for!


    TABS:

    Song: Mere Haath Mein
    Movie: Fanaa
    Music: Jatin Lalit

    Intro/Theme
    e|------------------------------------------------------
    B|------------------------------------------------------
    G|------------------------------------------------------
    D|------9--9--10-9-7------9-----10-9-7------------------
    A|---7------------------7-------------------------------
    E|------------------------------------------------------

    e|------------------------------------------------------
    B|------------------------------------------------------
    G|------------------------------------------------------
    D|------7--7--9-7-5-----5----7--5-----------------------
    A|---7--------------------8-------8-7-------------------
    E|------------------------------------------------------


    Mere Hath Mein ... Tera Haath Ho
    e|------------------------------------------------------
    B|------------------------------------------------------
    G|------------------------------------------------------
    D|------9--9--10---7------9--9--10---7------------------
    A|---7------------------7-------------------------------
    E|------------------------------------------------------


    Saari Jannatein ... Mere Saath Ho ... MUSIC
    e|------------------------------------------------------
    B|------------------------------------------------------
    G|------------------------------------------------------
    D|------7--7--9---5-----5----7--5---------5-7-5---------
    A|---7--------------------8---------7-----------8-7-----
    E|------------------------------------------------------


    Tu jo paas ho ... Phir kyaa yeh jhaan
    e|------------------------------------------------------
    B|------------------------------------------------------
    G|------9--9--10---7------9--12--10---7------------------
    D|---7------------------7-------------------------------
    A|------------------------------------------------------
    E|------------------------------------------------------


    Tere Pyaar mein ... Ho jaoon Fanaa ... MUSIC
    e|------------------------------------------------------
    B|------------------------------------------------------
    G|------7--7--9---5-----5----7--5-----------------------
    D|---7--------------------8---------7-----5-7-5---------
    A|----------------------------------------------8-7-----
    E|------------------------------------------------------

    Feedback please.

  3. #3
    purvi is offline Newbie
    Join Date
    Oct 2007
    Posts
    5
    Thanks Man Good Work Sorry I Took Sooooooooooooooooo Long To Reply

 

 

Similar Threads

  1. Chords for Fanaa - Mere haath mein
    By Marccha in forum Hindi Guitar Tabs - Submit or Request
    Replies: 12
    Last Post: 09-06-2012, 11:49 PM
  2. [SUB] - Mere haath me - Fanaa tabs
    By pnainani03 in forum Hindi Guitar Tabs - Submit or Request
    Replies: 9
    Last Post: 05-22-2011, 01:29 PM
  3. Mere Haath mein - fanaa Chords!
    By urs_nir in forum Hindi Guitar Tabs - Submit or Request
    Replies: 12
    Last Post: 03-09-2011, 03:26 PM
  4. Sub TABS: Fanaa - Mere Haath Mein
    By iprakash in forum Hindi Guitar Tabs - Submit or Request
    Replies: 17
    Last Post: 09-01-2010, 10:45 AM
  5. Tabs n chords for mere haath mein tere haath hain
    By shobiz27 in forum Hindi Guitar Tabs - Submit or Request
    Replies: 2
    Last Post: 06-18-2006, 08:29 PM

Bookmarks

Posting Permissions

  • You may not post new threads
  • You may not post replies
  • You may not post attachments
  • You may not edit your posts
  •  
Single Sign On provided by vBSSO