Follow Us On Follow us on Facebook Follow us on Twitter Watch us on YouTube
Register
Results 1 to 3 of 3
  1. #1
    VisOrchestraGrp is offline Pro Tabber
    Join Date
    Oct 2006
    Posts
    432

    Smile Nazarein Mili Dil Dhadka : Raja

    ******************WELCOME TO THE DANCE FLOOR***************

    MOVIE : RAJA
    ORIGIONAL SCALE : Dm

    NOTE : s INDICATES SA OF MIDDLE OCTAVE WHILE S INDICATES SA OF

    HIGHER OCTAVE and so on .

    Please also note that r1,g1,d1,n1 indicates keys that is present on the

    left side of r,g,d,n while m2 indicates key that is present on the right side of m.


    NAZAREIN MILI DIL DHADKA
    pmg1_____rs__g1__pS
    E |--5-3-1-0----1-5-10-------------
    B |-----------3---------------------

    MERI DHADKAN NE KAHA
    pm___d1S_____p__mp
    E |--5--3--6--10--5--3--3-5-------------

    LOVE YOU RAJA
    g1___r____g1s ( g1_r_g1_r_s is also in the later part of the song)
    E |--1--0--1--------------------------
    B |-----------3-----------------------

    JAADU KOI CHHANE LAGA
    pS____G1R_Sn1____n1n1S
    E |--5-10-13-12--10--8--8--8-10-------------

    MUJHKO MAZAA AANE LAGA
    pS_____G1G1MR_RS__n1n1S
    E |--5--10--13--13-15-12--12--10--8--8-10--------


    STANZA :---------

    KHAWBON MEIN BHI JAANE ADA
    pS_______S____S__pS____SS
    E |--5--10--10-10--5--10--10-10-------------

    MAINE TERA NAAM LIYA
    pp____SSR__Sn1__dn1
    E |--5--5--10--10-12--10--8--7--8-------------

    AAI JO TU MERE SAAMNE
    mn1_n1_n1_mm_n1n1n1
    E |--3--8--8-8--3-3--8-8-8---------------------

    MAINE DIL KO THAAM LIYA
    n1n1__n1_SR_SS_____SS
    E |--8--8--8---10-12--10--10--10-10-----------------

    TERE LIYE MAIN HOON BECHAIN KITNI
    SS___SS__S____S____n1n1n1__n1n1
    E |--10-10--10-10--10-10--8--8-8--8-8-----------------

    SANAM KYA TUJHE HAI PATA
    n1d1___d1__d1d1__n1_d1p
    E |--8--6-6--6-6--8--6--5-----------------------------

  2. #2
    chetan patle is offline Newbie
    Join Date
    Dec 2010
    Location
    i live in gujarat
    Posts
    12
    can nyone suggest me this song's chords??

  3. #3
    saptarshibond is offline Newbie
    Join Date
    Dec 2010
    Posts
    2

    Talking Nazren Mili Dil Dhadka

    E---2----------------2----7----2---0---3----7---3---0---2------0

    B------3---0---3 --------------------------------------------------3----2------3------0

    enjoy

 

 

Similar Threads

  1. Raja Raja Cholan choirds
    By kishmu in forum Tamil Guitar Tabs - Submit or Request
    Replies: 22
    Last Post: 12-30-2008, 11:04 PM
  2. Nazarein Milana Nazarein Churana - jaane tu ya jaane na
    By kittu95 in forum Hindi Guitar Tabs - Submit or Request
    Replies: 0
    Last Post: 06-19-2008, 08:59 PM
  3. [REQ] Nasre Mili - Raja (film)
    By amjith in forum Hindi Guitar Tabs - Submit or Request
    Replies: 0
    Last Post: 08-16-2005, 03:18 PM
  4. Raja Raja Chozhan vocal on guitar
    By jackdaws in forum Tamil Guitar Tabs - Submit or Request
    Replies: 7
    Last Post: 03-24-2005, 03:47 AM
  5. REQ: Raja Raja Chozhan Chords
    By srivatsan_p in forum Tamil Guitar Tabs - Submit or Request
    Replies: 4
    Last Post: 03-13-2005, 07:53 AM

Bookmarks

Posting Permissions

  • You may not post new threads
  • You may not post replies
  • You may not post attachments
  • You may not edit your posts
  •  
Single Sign On provided by vBSSO