Follow Us On Follow us on Facebook Follow us on Twitter Watch us on YouTube
Register
Results 1 to 14 of 14
  1. #1
    Zeus is offline Beginner
    Join Date
    Aug 2003
    Posts
    92

    Talking Mera Naam Joker - Jeena Yahan Marna Yahan

    Nice Song....



    E----------------------------------------------------------------
    B----------------------------------------------------------------
    G----------------------------------------------------------------
    D---------4----6----7---7-----------------------6-------------
    A-4-------------------------------8----9----------------------
    E----------------------------------------------------------------



    E----------------------------------------------------------------
    B----------------------------------------------------------------
    G----------------------------------------------------------------
    D--------3--4--6--7--6--3--4------------------------------------
    A-4---------------------------------------------------------------
    E----------------------------------------------------------------


    E----------------------------------------------------------------
    B----------------------------------------------------------------
    G-6------------4-----2-------2---------------------------------
    D--------6--------------------------3---6----4------------------
    A----------------------------------------------------------------
    E----------------------------------------------------------------

  2. #2
    Join Date
    Jan 2005
    Posts
    4
    hi Zeus
    i wanna full chords of this song if u know

  3. #3
    Join Date
    Jan 2005
    Location
    Mumbai.
    Posts
    32

    Just a try dude.

    JEENA YAHAN MARNA YAHAN
    =====================

    Excuse me for the wrong lyrics.

    Jeena yahan, marna yahan,
    Am................E..............

    Iske siva, jaana kahan
    E.............Am...........

    Jee chahe jab tumko aawaaz do
    C...........................G.........C..

    Hum hain yahin, tum ho kahan
    G............Am......E........Am

    Don't remember how the rest of the song goes.

    Vocal melody :

    e------------------------------------------------------------------
    B------------------------------------------------------------------
    G------------------------------------------------------------------
    D---7-9-10-9-6-7-9---6-7-9-10-9s6-7-9---------------------------
    A-7-----------------7----------------------------------------------
    E------------------------------------------------------------------

    e------------------------------------------------------------------
    B------------------------------------------------------------------
    G-9-10s7-9-9-9-9-10s7-9-7---7------------------------------------
    D---------------------------9---10-9-----9------------------------
    A-------------------------------------11----12--------------------
    E------------------------------------------------------------------

    Just a try. Criticisms please. Enjoy.

    =============
    SlayeR RuleZ.
    =============
    I'm free of all prejudice. I hate everybody equally.

  4. #4
    propellerhead is offline Banned
    Join Date
    Jan 2005
    Posts
    52
    your chords r very simplified. song is in f#m and is very very complicated.. i listened.. its too tough...

  5. #5
    Join Date
    Jan 2005
    Location
    Mumbai.
    Posts
    32
    Aren't simplified chords better suited for beginners ? Anyways, thanks for the info.
    I'm free of all prejudice. I hate everybody equally.

  6. #6
    jayswami's Avatar
    jayswami is offline Blue J
    Join Date
    Nov 2004
    Location
    Redmond
    Posts
    1,616
    chord progressions go like

    Jeena yahan, marna yahan,
    Fm.......D.........C#......C#7........

    Iske siva, jaana kahan
    C#7.........D..C#7..F#m.

    Jee chahe jab tumko aawaaz do
    F#m........Aaug........A........Ebm7b5.. (Eb half dim)

    Hum hain yahin, tum ho kahan
    E............D.......C#7........F#m

  7. #7
    jayswami's Avatar
    jayswami is offline Blue J
    Join Date
    Nov 2004
    Location
    Redmond
    Posts
    1,616
    Quote Originally Posted by killer_instinct
    Aren't simplified chords better suited for beginners ? Anyways, thanks for the info.
    yes and no.

    beginners should know that they r playing a simplified version, and not exact. otherwise they will never develop good ears.

    but yes, its ok to play something that sounds reasonably good.

    But u commited big blasphemy.. u transposed key from F#m to Am.

    When u do that at least mention it, and also the reason why u made the shift. A and F# are very different in nature.

  8. #8
    Join Date
    Jan 2005
    Location
    Mumbai.
    Posts
    32
    Yes, I guess you're right Mr. Jayswami. I couldn't figure out the exact chords because I don't have this song with me, and I'd heard it a very very long time ago. Appreciate the criticisms. Will be a bit more cautious in the future. Thank you.
    I'm free of all prejudice. I hate everybody equally.

  9. #9
    jayswami's Avatar
    jayswami is offline Blue J
    Join Date
    Nov 2004
    Location
    Redmond
    Posts
    1,616
    i give these blunt feedbacks just to give u gusy a reality check.. the chords u gave will work on any birthday or wedding parties.

  10. #10
    mathai's Avatar
    mathai is offline Mathai Learns To Rock
    Join Date
    Jan 2004
    Location
    God's Own Country
    Posts
    90
    jay,can u plse give the chord shape of Eb half dim
    that would be helpful

  11. #11
    jayswami's Avatar
    jayswami is offline Blue J
    Join Date
    Nov 2004
    Location
    Redmond
    Posts
    1,616
    lol i have no idea how to play it.. check outsome chord chart the notes re
    D#halfdim resolves to same as F#m6 with the vocing
    notes are D#+F#+A+C# in that sequence for the song.. hence i called it D#halfdim instead of F#m6/D# case split chords usually mean there isa gap of one octave.

    its basically an F#m with a low D# note.

    i heard the song its kinda even better

    That whole sequense bass changes F# F E D# D C#

    Code:
    Jee chahe jab tumko    aawaaz do
    F#m/F# Faug/F  F#m/E  F#m6/D# ->(D#dim7b5) 
                          (A6/E)
    Hum hain yahin, tum ho kahan
    Bm/D F#m/D     C#/C# back to F#m
    And i dont even think i am close to exact. As Mr propellerhead rightly said.. this song is really tough.. hazaar things happen in it.

  12. #12
    satan_rulez_u is offline Newbie
    Join Date
    Jan 2005
    Posts
    19
    hey me too vana know abt the Eb about the basic idea of these os *b chords

  13. #13
    mathai's Avatar
    mathai is offline Mathai Learns To Rock
    Join Date
    Jan 2004
    Location
    God's Own Country
    Posts
    90
    thanks for the info jay
    im moving away from my native,so i won't be able
    to transcribe any songs,otherwise i would've tried that
    "kokarako" u posted in tamil section...
    i burned a cd of Igt chords and tabs!wchic has a seperate
    jayswami section....
    im hoping to getback to IGT soon...

    mathai

  14. #14
    vineeyes is offline Newbie
    Join Date
    Jun 2010
    Posts
    20
    I need jeea yahan merna yah

 

 

Similar Threads

  1. [Zakhm- Hum yahan, tum yahan] notes and chords
    By cshe108 in forum Hindi Guitar Tabs - Submit or Request
    Replies: 3
    Last Post: 04-27-2014, 09:08 AM
  2. Tabs Submission : Jeena Yahan Marna Yahan - MERA NAAM JOKER
    By amit82cse in forum Hindi Guitar Tabs - Submit or Request
    Replies: 5
    Last Post: 10-22-2008, 01:49 AM
  3. Chords: Jeena Yaha (Mera Naam Joker)
    By sDEVs in forum Hindi Guitar Tabs - Submit or Request
    Replies: 2
    Last Post: 08-19-2006, 06:33 PM
  4. Jeena yahan marna yahan - RK classic
    By urs_nir in forum Hindi Guitar Tabs - Submit or Request
    Replies: 0
    Last Post: 09-25-2005, 08:06 AM
  5. Req - Main Yahan Honn Yahan from the Movie Veer Zara
    By KabirA in forum Hindi Guitar Tabs - Submit or Request
    Replies: 1
    Last Post: 07-30-2005, 10:06 PM

Bookmarks

Posting Permissions

  • You may not post new threads
  • You may not post replies
  • You may not post attachments
  • You may not edit your posts
  •  
Single Sign On provided by vBSSO