Follow Us On Follow us on Facebook Follow us on Twitter Watch us on YouTube
Register
Results 1 to 4 of 4
  1. #1
    VisOrchestraGrp is offline Pro Tabber
    Join Date
    Oct 2006
    Posts
    432

    Smile Mera dil ye pukare : Nagin Song/ Music

    Movie - Nagin
    Singer - Lata Mangeshkar

    Mera dil ye pukare aaja Mere gham ke sahare aaja
    D |---------5--5-5-6-5----5--6-5-3-5-3-----3-----------------
    A |--3-5-6--------------6----------------6-----6-5-6-5-3-----

    Bheega bheega hai sama Aise mein hai tu kahan
    A |--6-5-3-5-3-3-3--6-5-3-5-3-3-3----------------------------

    Mera dil ye pukare aaja
    D |---------5--5-5-6-5----5------------------------------------
    A |--3-5-6--------------6--------------------------------------

    MUSIC :-
    B |----------3----------------6----8-6-4-6-4----------6----4----3-------
    G |-----4-5----4-5--5-7-8-7----8-------------5-7-8-7----7----5----4-5--
    D |--6--------------------------------------------------------------------


    STANZA :-

    Tu nahi to ye rutt ye hawa kya karoon Kya karoon
    B |-------------------6-4-3------------4-3----------
    G |-------8-8-7-8-8---------4-5-7--5-------5-------
    D |--5-5--------------------------------------------

    Tu nahi to ye rutt ye hawa kya karoon
    B |-------------------6-4-3-------------------------
    G |-------8-8-7-8-8---------4-5-7------------------
    D |--5-5--------------------------------------------

    Door tujh se main reh ke bata kya karoon Kya karoon
    G |-------5-4-5-7-5-4-5-----------------------------
    D |--5-6------------------5-6-8-6-8-6-5-------------

    Soona soona hai jahan Ab jaon main kahan
    D |--5-6-8-8-6-5-3--3-5-6-6-5-3---------------------
    A |--------------------------------6------------------

    Bas itna mujhe samjha ja ...........
    D |---------5-5---------------------------------------
    A |--6-8-8-------6-8-6-5-5-6-5-3---------------------

    Stanza 2 :-

    REPEAT FIRST 4 LINES OF STANZA 1 THEN PLAY

    O chand......O chand mere samjha ***hlaja
    D |-----6-5-----------------5-5------------------------
    A |--8-------8-6-8--6-8-8--------6-8-6-5-5-6-5-3------

    THEN PLAY LINES BHEEGA BHEEGA HAI SAMA + MERA DIL YE PUKARE

    ENDING :-

    D |-------5-6-5-6-5-6-5-------3-5-3-5-3---------------------------
    A |--5-6-----------------5-6--------------6-5-3--5-3-6-3----------

    A |--5----3----5-3-6-3-5----3-------------------------------------
    e |-----6----6------------6----------------------------------------

  2. #2
    Grahan's Avatar
    Grahan is offline Newbie
    Join Date
    Jun 2007
    Posts
    6
    Nice work .

  3. #3
    THE HELPER is offline Guitarist
    Join Date
    Jul 2007
    Posts
    105
    Chord of this song is also present in the forum -

    Enter V I S C H O R D S in search without leaving space between alphabet.

  4. #4
    VisOrchestraGrp is offline Pro Tabber
    Join Date
    Oct 2006
    Posts
    432
    Movie - Nagin
    Singer - Lata Mangeshkar

    The format of this song previously posted by me is not good as some lines
    overlap each other so here is the better format -

    Mera dil ye pukare aaja Mere gham ke sahare aaja
    D |---------5--5-5-6-5-----5--6-5-3-5-3------3-----------------
    A |--3-5-6---------------6-------------------6-----6-5-6-5-3-----

    Bheega bheega hai sama Aise mein hai tu kahan
    A |--6-5-3-5-3-3-3--6-5-3-5-3-3-3----------------------------

    Mera dil ye pukare aaja
    D |----------5--5-5-6-5------5------------------------------------
    A |--3-5-6-----------------6---------------------------------------

    MUSIC :-
    B |-----------3------------------6------8-6-4-6-4--------------6------4-----3--------
    G |-----4-5-----4-5--5-7-8-7------8----------------5-7-8-7------7------5-----4-5---
    D |--6--------------------------------------------------------------------------------


    STANZA :-

    Tu nahi to ye rutt ye hawa kya karoon Kya karoon
    B |---------------------6-4-3---------------4-3-----------
    G |--------8-8-7-8-8-----------4-5-7--5----------5-------
    D |--5-5--------------------------------------------------

    Tu nahi to ye rutt ye hawa kya karoon
    B |---------------------6-4-3-----------------------------
    G |--------8-8-7-8-8-----------4-5-7---------------------
    D |--5-5--------------------------------------------------

    Door tujh se main reh ke bata kya karoon Kya karoon
    G |--------5-4-5-7-5-4-5-----------------------------
    D |--5-6--------------------5-6-8-6-8-6-5-------------

    Soona soona hai jahan Ab jaon main kahan
    D |--5-6-8-8-6-5-3--3-5-6-6-5-3---------------------
    A |------------------------------------6------------------

    Bas itna mujhe samjha ja ...........
    D |----------5-5---------------------------------------
    A |--6-8-8---------6-8-6-5-5-6-5-3---------------------

    Stanza 2 :-

    REPEAT FIRST 4 LINES OF STANZA 1 THEN PLAY

    O chand......O chand mere samjha ***hlaja
    D |-----6-5------------------5-5------------------------
    A |--8-------8-6-8--6-8-8--------6-8-6-5-5-6-5-3------

    THEN PLAY LINES BHEEGA BHEEGA HAI SAMA + MERA DIL YE PUKARE

    ENDING :-

    D |--------5-6-5-6-5-6-5---------3-5-3-5-3---------------------------
    A |--5-6--------------------5-6----------------6-5-3--5-3-6-3----------

    A |--5-----3------5-3-6-3-5------3-------------------------------------
    e |------6-----6---------------6----------------------------------------

 

 

Similar Threads

  1. Req: tabs of nagin by decibel
    By metallica-freak in forum English Guitar Tabs - Submit or Request
    Replies: 9
    Last Post: 03-14-2012, 09:35 PM
  2. Take 1 on Decibel - Nagin
    By max_payne16 in forum IGT Soundtrack - Your Band, Your Gig, Your Music
    Replies: 5
    Last Post: 03-14-2012, 09:30 PM
  3. NAGIN .. mera man dole ...
    By ace_guitarist in forum Hindi Guitar Tabs - Submit or Request
    Replies: 5
    Last Post: 06-13-2009, 02:53 PM
  4. REQ:Dil Harrey Pukare By Jal
    By dawn2rock in forum Hindi Guitar Tabs - Submit or Request
    Replies: 4
    Last Post: 02-05-2006, 11:10 AM
  5. req: dil harrey pukare by jal
    By dawn2rock in forum Hindi Guitar Tabs - Submit or Request
    Replies: 0
    Last Post: 01-29-2006, 07:51 PM

Bookmarks

Posting Permissions

  • You may not post new threads
  • You may not post replies
  • You may not post attachments
  • You may not edit your posts
  •  
Single Sign On provided by vBSSO