hello guyzz boxer here ...here r the tabs of ladki kyun (hum tum)
plzz reply me if it is gud

intro
ladki kyun najane kyun ladko si nahe hoti
----------------------------------------
----------------------------------------
-------9-7-9-7-------------------------- play this tab fast
-----7----------10-7--------------------
----------------------------------------
----------------------------------------


----------------------------------------
----------------------------------------
---------7------------------------------ play this tab fast
-----10-----10-9-7----------------------
-------------------10/12----------------
----------------------------------------

plzz reply me if it is gud ...