Follow Us On Follow us on Facebook Follow us on Twitter Watch us on YouTube
Register
Results 1 to 9 of 9
  1. #1
    grimreaper is offline Newbie
    Join Date
    Nov 2007
    Posts
    7

    Cool "KUCH IS TARAH" Complete tab with complete fill-in's

    Song: Kuch Is Tarah
    Artist: Atif
    Tabbed by:grimREAPER

    This song is so damn devine..just cudnt stop tabbing this song..finished in 1 night and a half day..well..
    thats pretty good for a lazy prick like i m..
    ive tried to include idea of timing also but..not completely..hope that will be helpfull..

    - : 8th note
    = : 16th note
    h : hammer
    s : slide
    ` : let ring

    * ive tuned my guitar 1step down..its easier to play that way i guess*

    Intro:
    D-----------=14h15=17=15=15----------------------------
    A--12---15=------------------------12s10s12-10=10--8---
    F--------------------------------------------------------------
    C--12`````-------------------------------------------------
    G-------------------------------------------------------------
    D-------------------------------------------------------------

    Plucking part:

    D-3=``````-----------------------------------------------
    A--=1=0=-=3=-----------=1=0=-=3=-------------------
    F------------------=2=4=------------------=2=4=--------
    C--------------=0=``--=0=``--------=0=``--=0=``---
    G--------=0=``-----------------=0=``-------------------
    D------------------------------------------------------------ X2

    1st verse:

    *there r 2 guitars playing..1st is playing simple chords,while the 2nd guitar is playing extra notes here and there..
    the basic chords r [G Bm D Bm]..but u can use these chords[G D6 D5 Bm] for better sound and to sound like that in the song itself..

    D6 : x 2 4 2 3 5
    D5 : x 0 0 2 3 5

    Strumping Pattern:[ D U D[x] U U D ]

    *For first 4 lines use the following plane plane down strokes..then you can start with the rhythm*
    ...................[G]...............[D6]...........[D5]...........[Bm]
    D--------------------=2------------=5------------=5-----------=2--
    A--------------------=2------------=3---------=3=3-----------=3--
    F------------------=4-----------=2=-------=2=------------=4=----
    C---------------=5=----------=4=--------0=------------=4=-------
    G-------------=5=-----------2=-----------x------------2=----------
    D------------3=--------------x-------------x------------x------------
    Kuch is tarah.....teri palkein....meri palkon se......mila de
    Aansoo tere..........saare........meri palkon pe.....sajaa de
    Kuch is tarah.... teri palkein....meri palkon se......mila de
    Aansoo tere......... saare........meri palkon pe......sajaa de

    *Rhythm guitar starts*

    Kuch is tarah......teri palkein.......meri palkon se......mila de.....

    Break:
    Guitar solo part:

    D-------------------------------------------------------------------
    A-13=13=12=12`------------------------------------------------
    F------------------14``-----11=11=10=11=7=7=5=5=7=4``--
    C----------------------------------------------------------------------
    G----------------------------------------------------------------------
    D----------------------------------------------------------------------

    2nd verse:

    Same as 1st..play any chord progression [G Bm D Bm] or [G D6 D5 Bm]

    --------------G--------------Bm--------------D-------------Bm----
    Kuch is tarah.........teri palkein........meri palkon se.......mila de
    Aansoo tere.............saare........... meri palkon pe...... sajaa de

    Break:
    Guitar solo part:

    D------------------------------------------------15=15=15=15=15=12=15=12=12``-----------------------------
    A-------------------------------------(dont pick)---------------------------------------12=10-8=7----7=7=5=3s5``--
    F-15=15=15`-12``--12=12=8=10-10s12``---------------------------------------------------------------------------
    C-------------------------------------------------------------------------------------------------------------------------
    G--------------------------------------------------------------------------------------------------------------------------
    D--------------------------------------------------------------------------------------------------------------------------

    Chorus1:
    -----------G---------Bm--------D--------Bm----
    Tu har ghadi har waqt mere saath raha hai
    --------------G--------Bm-------D--------Bm----
    Haan yeh jism kabhi door kabhi paas raha hai
    ---------Em---------------D------C---------------D-----D----......*all chords played in bar..*
    Jo bhi gham hain yeh tere unhein tu mera pataa de.............*Em[7 7 9 9 8 7] D[5 5 7 7 7 5] C[3 3 5 5 5 3]*

    Kuch is tarah teri palkein meri palkon se mila de-}same
    Aansoo tere saare meri palkon pe sajaa de--------}

    Break:Flute solo

    Chorus2:
    ---------------G-------Bm----------D--------Bm----
    Mujhko toh tere chehre pe yeh gum nahin janchta
    ----G----------Bm---------D---------------Bm----
    Jaayiz nahin lagta mujhe ghum se tera rishta
    --------Em-----D------C-------------D---
    Sun meri ghuzarish ise chehre se hataa de
    --------Em-----D------C--------------D----D----
    Sun meri ghuzarish ise chehre se hataa de

    Kuch is tarah teri palkein meri palkon se mila de-}Same as before
    Aansoo tere saare meri palkon pe sajaa de-----} x2

    Outro:
    Guitar solo
    D--------------------------
    A-12s15=13=12=10-----
    F---------------------------
    C---------------------------
    G---------------------------
    D---------------------------

    This is the first tab ive uploaded..so plz any kinds of suggestions or comments you guys have,feel free to pass..that will be very much appriciated.Thanx
    ...Do good..Be Good..^@^
    ..................................`............... .................................................. .....................

  2. #2
    adeel zaidi's Avatar
    adeel zaidi is offline Newbie
    Join Date
    Jan 2007
    Posts
    29
    its great man u have done a very gud and difficult job keep rocking dude u have done it eik dum class or jhakas kisam ki tabs ki hain tum ney 1000000000 out of 100

  3. #3
    maaani is offline Pro Tabber
    Join Date
    May 2005
    Posts
    529
    man u made it very complicate.... i think the other version is better ..

  4. #4
    maaani is offline Pro Tabber
    Join Date
    May 2005
    Posts
    529
    Song: Kuch is tarhan
    Album: Doorie
    Single: Atif Aslam
    Tabbed by Faiq

    ************************************************** **********

    Chords:
    Am X02210
    Bb X13331
    Dm XX0231
    C x32010

    Intro
    e|----12-13-15-13-13------------------------------------|
    b|-13----------------14b15r14-12-14-12-12-10----------------------|
    g|--------------------------------------------|
    d|--------------------------------------------|
    a|--------------------------------------------|
    e|--------------------------------------------|

    e|-------------|-------------------------------|
    b|-6-----------|-------------------------------|
    g|-----5-------|---------5---------------------|
    d|---7---7-5-7-|--7-8--7---8-7-8---------------|
    a|-------------|-------------------------------|
    e|-------------|-------------------------------|3x

    Riff:A
    e|--------1--------3-----------3---------1---------|
    b|------3----------1-----------1-------3-----------|
    g|----2----------2-----------2-------2-------------|
    d|--0----------2-----------2-------0---------------|
    a|-----------0-----------0-------------------------|
    e|-------------------------------------------------|

    ************************************************** **********

    Riff:A
    Kuch is tarhan .. teri palkain...meri palkoon sey mila dey
    ansoo terey saree...meri palkoon pe saja dey (2x)

    Kuch is tarhan .. teri palkain...meri palkoon sey mila dey

    [Piano solo] Then bottom solo on guitar

    e|--------------------------------------------|
    b|-11-11-11p10--8--6-6---------------------------------|
    g|---------------------9-9s7---7s5-5s3-3-2-2----------------|
    d|--------------------------------------------|
    a|--------------------------------------------|
    e|--------------------------------------------|

    ************************************************** **********

    Riff:A
    Kuch is tarhan .. teri palkain...meri palkoon sey mila dey
    ansoo terey saree...meri palkoon pe saja dey


    [SOLO]
    e|---------------------------------------13-13-13-13-13-10-12-10-10----------------------------|
    b|-13-13-13-13-10------------------------------------------------------11-10-------------------|
    g|-----------------14-14p10-12-10-12s14---------------------------------------12-10--9-9-7-5-7-|
    d|-----------------------------------------------------------------------------------------------------|
    a|-----------------------------------------------------------------------------------------------------|
    e|-----------------------------------------------------------------------------------------------------|

    ************************************************** **********
    -------Dm----------Am-------Bb---------C----
    tu har ghari...har waqt..merey sath raha hai

    --------Dm----------Am---------Bb---------C----
    han yeh jisam kabhi dooor...kabhi pass raha hai

    --------Dm------------Am----------Bb-------------C----
    joh bhi gham hain yeh terey .. unhain tu mera pata dai.........


    Riff:A
    Kuch is tarhan .. teri palkain...meri palkoon sey mila dey
    ansoo terey saree...meri palkoon pe saja dey

    ************************************************** **********

    ----------Dm--------Am----------Bb--------C----
    mujhko tu terey chehrey pe..yeh gham nahi jajta
    ---Dm------Am---------Bb--------------------C----
    jaaiz nahi laghta..mujhey gham sey yeh tera rishta
    ----Dm-----Am-------Bb----------------C----
    sun meri guzarish..isey chehray sey hata dey

    Riff:A
    Kuch is tarhan .. teri palkain...meri palkoon sey mila dey
    ansoo terey saree...meri palkoon pe saja dey


    e|--------------------------------------------|
    b|s13-11-10-8--(Piano Ending)-----------------|
    g|--------------------------------------------|
    d|--------------------------------------------|
    a|--------------------------------------------|
    e|--------------------------------------------|

    ************************************************** **********

  5. #5
    sat_yam is offline Newbie
    Join Date
    Nov 2007
    Location
    Noida
    Posts
    14
    Hey guys ,

    Both of you done a great work but maaani's vers'n is easiear I think.

    Lot's of thanks to both of you as I'm looking for complete tabs of this

    song.

  6. #6
    grimreaper is offline Newbie
    Join Date
    Nov 2007
    Posts
    7
    hey guys..thanx for your response..
    adeel zaidi..dude,thank you very much.
    maani..actually didnt know the other version existed..wen i searched..found only two..n ya dude,ur rite..its kinda complicated..but if uve some idea about notations..it ll be more helpfull..thats why i included the idea of timing n stuffs..anyways thanks dude..
    n ofcourse satyam..thanx man.

  7. #7
    DRBILLA's Avatar
    DRBILLA is offline Guitarist
    Join Date
    Apr 2005
    Location
    HYDERABAD
    Posts
    136
    great work grimreaper. Both the versions are good presented in different styles. Both are rocking

  8. #8
    Join Date
    Apr 2007
    Location
    Cutt@ck
    Posts
    36
    excellent work guys

  9. #9
    atiq's Avatar
    atiq is offline 4amanth2_2t1q
    Join Date
    Dec 2005
    Location
    U.A.E. - R.A.K.
    Posts
    45
    Wow ......cool

 

 

Similar Threads

  1. Chords: "KUCH IS TARAH" - Atif (Doorie) ... beautiful song !!!
    By paranoid13rohan in forum Hindi Guitar Tabs - Submit or Request
    Replies: 29
    Last Post: 11-20-2011, 07:30 PM
  2. Req: Complete Song Tabs Of "jado Teri Nazar"
    By jugnu in forum Hindi Guitar Tabs - Submit or Request
    Replies: 1
    Last Post: 12-01-2008, 11:01 AM
  3. Complete chords of "Raah pe rehte hai"...sounding great folks!!!
    By dr_y_ravi in forum Hindi Guitar Tabs - Submit or Request
    Replies: 4
    Last Post: 02-21-2007, 12:22 PM
  4. REQ: Complete chords of the song "Aaro Ekbaar" by Fossils.
    By probuddha in forum Bengali Guitar Tabs - Submit or Request
    Replies: 23
    Last Post: 11-29-2005, 11:44 AM
  5. "Now & Forever" by "Richard Marx" - Complete tabbings
    By nishantsomani in forum English Guitar Tabs - Submit or Request
    Replies: 4
    Last Post: 11-20-2005, 09:04 PM

Bookmarks

Posting Permissions

  • You may not post new threads
  • You may not post replies
  • You may not post attachments
  • You may not edit your posts
  •  
Single Sign On provided by vBSSO