Follow Us On Follow us on Facebook Follow us on Twitter Watch us on YouTube
Register
Page 1 of 2 12 LastLast
Results 1 to 15 of 18
  1. #1
    KannadaBoi's Avatar
    KannadaBoi is offline Kannadiga
    Join Date
    Aug 2004
    Location
    Toronto, Canada
    Posts
    81

    Smile Kahin Door Jab Din Dhal Jaye Tabs

    Kahin Door Jab Din Dhal Jaye
    Film: Anand
    Tabbed By: Chirag

    This is my favourite song to play on the guitar. It sounds really good on a steel stringed Acoustic guitar. I figured this song out in the Christmas of 2003 and wanted to tab it ever since. I love the new Jagjit Singh Version. Anyways, enjoy playing this song, that is so dear to my heart. Kahin door jab din Dhal Jaye

    E---4-4--4-4--2-0-2-0-----0-----------------------------
    B----------------------2-----0--2-2---2-2-2--0-2-4-2-4-4
    G-----------------------------------2-------------------
    Kahin Door Jab Din Dhal Jaye Sanjh Ki Dulhan Badan Churaye

    E------4--2--0-0------7-7-6-7--5-4--2-4-5-4-5-4-2-------
    B-0-0---------------------------------------------------
    G-------------------------------------------------------
    Chupke Se Aaye Mere Khayaalon Ke Aangan Mein

    E--0--2--4--2-4/5--4--2-0--------2--7--6-6-6----7--5-4-4
    B---------------------------4--4---------------4--------
    G-------------------------------------------------------
    Koi Sapnon Ke Deep Jalaaye ( x 2 )

    E7-7-9-9-77-99--4-4--7--12--11-11-11------------------
    B------------------------------------------------------
    G------------------------------------------------------
    Kabhi Yun Hi Jab Hui Bojhal Saansen

    E--5-5-5-0-5-5-5-9-7-9-11-9-7-7------------------------
    B------------------------------------------------------
    G------------------------------------------------------
    Bhar Aai Baithe Baithe Jab Yun Hi Aankhen

    E7-7-6-7--5-4--2-4-5-4-5-4-2-------------------------
    B-----------------------------------------------------
    G-----------------------------------------------------
    Kabhi Machal Ke Pyar Se Chal Ke

    E--0--2--4--2-4/5--4--2-0--------2--7--6-6-6----7--5-4-4
    B---------------------------4--4---------------4--------
    G-------------------------------------------------------
    Chhuye Koi Mujhe Par Nazar Na Aaye ( x 2)

    E---4-4--4-4--2-0-2-0-----0-----------------------------
    B----------------------2-----0--2-2---2-2-2--0-2-4-2-4-4
    G-----------------------------------2-------------------
    Kahin Door Jab Din Dhal Jaye Sanjh Ki Dulhan Badan Churaye
    E------4--2--0-0----------------------------------------
    B-0-0---------------------------------------------------
    G-------------------------------------------------------


    E7-7-9-9-77-99--4-4--7--12--11-11-11------------------
    B------------------------------------------------------
    G------------------------------------------------------
    Kahin To Yeh Dil Kabhi Mil Nahin Paate

    E--5-5-5-0-5-5-5-9-7-9-11-9-7-7------------------------
    B------------------------------------------------------
    G------------------------------------------------------
    Kahin Pe Nikal Aaye Janmon Ke Naate

    E7-7-6-7--5-4--2-4-5-4-5-4-2-------------------------
    B-----------------------------------------------------
    G-----------------------------------------------------
    Thami Thi Uljhan Bairi Apna Man

    E--0--2--4--2-4/5--4--2-0--------2--7--6-6-6----7--5-4-4
    B---------------------------4--4---------------4--------
    G-------------------------------------------------------
    Apna Hi Hoke Sahe Dard Paraaye (x 2)

    Kahin Door...

    --------------------------------***--------------------------------------



    Any Comments and Suggestion are welcome.

  2. #2
    ijlal is offline The B chord
    Join Date
    Jun 2004
    Location
    Dehli
    Posts
    178
    i love that song too...i haven't tested ur tabs...hope they work.

    thanks for sharing

    regards

  3. #3
    Join Date
    Jan 2004
    Location
    Del.
    Posts
    139
    hey .... awwwssssoooommmeeeeee tabs ..... had been looking for the whole song for a loonnggg time now... thnxxxx a tonn ... have tried part of the song... will try the whole thing n let u know....

    if i could make a suggestion.. i feel this sounds a li'l better than thhe earlier version...

    E—7-7-9-9-77-99--4---7--12--11-9--9----------------
    B------------------------------------------------------
    G------------------------------------------------------
    Kabhi Yun Hi Jab Hui Bojhal Saansen
    I'm moving forward now, but I feel like I'm being mislead... Could you tell me gently please... I'm down but not out... I can't go running around forever chasing the wind...-Gary Sun

  4. #4
    KannadaBoi's Avatar
    KannadaBoi is offline Kannadiga
    Join Date
    Aug 2004
    Location
    Toronto, Canada
    Posts
    81
    Thanks a lot for replying and appreciating my work.

  5. #5
    bob-bobby's Avatar
    bob-bobby is offline Extinct or Banned!
    Join Date
    Mar 2004
    Location
    lagos, nigeria, west africa
    Posts
    976
    hey kannadaboi , i am gonna try em too tomm & will let you know , wel when nats has tested it , prob wud be okay i guess ....

    isnt it nats ,,,,,,,,,,,,,,,
    Moderator - IGT .
    ( Still a Sweetheart ) ...

  6. #6
    jatan is offline Newbie
    Join Date
    Jun 2004
    Location
    toronto,canada
    Posts
    33
    hey awesome work kannada boi i relly enjoyed it playing. go on post more tabs and chord of other songs.

  7. #7
    KannadaBoi's Avatar
    KannadaBoi is offline Kannadiga
    Join Date
    Aug 2004
    Location
    Toronto, Canada
    Posts
    81
    Hey Jatan, you from Toronto? Me Toooo...

  8. #8
    jatan is offline Newbie
    Join Date
    Jun 2004
    Location
    toronto,canada
    Posts
    33
    hey kannada boi wats ur mail id so that we can talk???

  9. #9
    Join Date
    Jun 2004
    Location
    CHANDIGARH
    Posts
    7
    can i get the cords of this song please
    DONT EXPECT ANYTHING BUT NEVER GIVE UP HOPE

  10. #10
    chatty_arko's Avatar
    chatty_arko is offline Tabber
    Join Date
    May 2006
    Location
    pune
    Posts
    253
    dats superb my fav song too thanks man
    broken heart made my music more lovely n helped me win prizes

  11. #11
    nec_girl is offline Newbie
    Join Date
    Jun 2007
    Posts
    18
    where i can have this song ? i haven`t listen this song plz link ?

  12. #12
    Keoraf's Avatar
    Keoraf is offline Keyboard Player
    Join Date
    Dec 2006
    Location
    The Netherlands
    Posts
    1,205
    Here you can watch and listen to the original track from the movie Anand:

    http://nl.youtube.com/watch?v=_FBbRIrYVLQ
    _____________________________________________

    Sur Maata Hoti Hai
    Aur Taal Pita
    Jo Be Taala Hai
    Wo Anaat Hai

    -------------------//-------------------
    http://www.soundclick.com/keoraf
    -------------------//-------------------

  13. #13
    cooljeba's Avatar
    cooljeba is offline Newbie
    Join Date
    Feb 2008
    Posts
    18
    sounds lovely.. good job man..

  14. #14
    bjgindia is offline Newbie
    Join Date
    Mar 2009
    Location
    HYderabad, India
    Posts
    7
    @KannadaBoi, Got it finaaly here after a long search over the net [:P]
    Thanks a lot. Will try it today...

  15. #15
    bjgindia is offline Newbie
    Join Date
    Mar 2009
    Location
    HYderabad, India
    Posts
    7
    Very Nice Tabs!

 

 
Page 1 of 2 12 LastLast

Similar Threads

  1. kahin Door Jab Din Dhal jaaye
    By Zeus in forum Hindi Guitar Tabs - Submit or Request
    Replies: 1
    Last Post: 02-03-2012, 09:53 PM
  2. Chords Submission : Kahin Door Jab Din Dhal Jaye - ANAND
    By amit82cse in forum Hindi Guitar Tabs - Submit or Request
    Replies: 7
    Last Post: 02-03-2012, 09:52 PM
  3. kahin door jab din dhal jaaye...
    By raj2010 in forum Hindi Guitar Tabs - Submit or Request
    Replies: 1
    Last Post: 05-04-2005, 11:50 PM
  4. REQ: Kahin door jab din dhal jaaye
    By sushant_3k in forum Hindi Guitar Tabs - Submit or Request
    Replies: 3
    Last Post: 11-26-2004, 11:31 AM
  5. Kahin Door Jab Din Dhal Jaaye - Aanad
    By DesiPride143 in forum Hindi Guitar Tabs - Submit or Request
    Replies: 2
    Last Post: 01-02-2004, 11:53 AM

Bookmarks

Posting Permissions

  • You may not post new threads
  • You may not post replies
  • You may not post attachments
  • You may not edit your posts
  •  
Single Sign On provided by vBSSO