Follow Us On Follow us on Facebook Follow us on Twitter Watch us on YouTube
Register
Results 1 to 3 of 3
  1. #1
    sumit's Avatar
    sumit is offline HaNdS uPPP!!
    Join Date
    May 2004
    Location
    PUNE
    Posts
    346

    Thumbs up jnoy tujhe dekha toh yeha jaana sanam

    E-------7-5-7-3-5-8-7-7-7-7
    G-5-5-5-------------------
    tujhe dekha toh yeh jaana sanam

    E-----7-5-7-3-5-3-2-2-2-2
    G--5-5
    pyar hota hai deewana sanam

    E----------------
    G-5-7-3-5-7-3-5-8-7-7-7-7--
    ab yaha se kahan jaye hum

    E-------------------
    G-5-7-3-5-7-3-8-7-5-5-5-5
    teri bahon main marjaye hum

    comment how it sounds and improve it if u cn
    The most uncommon thing in common people is common sense

  2. #2
    sumit's Avatar
    sumit is offline HaNdS uPPP!!
    Join Date
    May 2004
    Location
    PUNE
    Posts
    346
    E-------7-5-7-3-5-8-7-7-7-7
    G-5-5-5-------------------
    tujhe dekha toh yeh jaana sanam

    E-----7-5-7-3-5-3-2-2-2-2
    G--5-5
    pyar hota hai deewana sanam

    E----------------
    G-5-7-3-5-7-3-5-8-7-7-7-7--
    ab yaha se kahan jaye hum

    E-------------------
    G-5-7-3-5-7-3-8-7-5-5-5-5
    teri bahon main marjaye hum

    comment how it sounds and improve it if u cn
    __________________
    The most uncommon thing in common people is common sense

  3. #3
    ats's Avatar
    ats
    ats is offline Oldie
    Join Date
    Feb 2004
    Location
    Bangalore
    Posts
    74
    i have another version of this

    1st line
    E -0-0-0-7-5-7--3--5--8-7

    2nd line
    E -0-0-0-7-5-7--3--5--3-2

    3rd line
    E -0-2----0--2----0--3-2
    B ------3--------3

    4th line
    E -0-2----0--2----3--2-0
    B ------3--------3

    or

    4th line
    E --2--3--5--10--8--7--3--5--7--5--3--2--0

 

 

Similar Threads

  1. Replies: 2
    Last Post: 12-19-2011, 11:19 PM
  2. Chords of tujhe dekha to ye jaana sanam
    By vishwa_81us in forum Hindi Guitar Tabs - Submit or Request
    Replies: 13
    Last Post: 12-01-2010, 01:20 PM
  3. Tujhe dekha to ye jana sanam
    By guitarangela in forum Hindi Guitar Tabs - Submit or Request
    Replies: 20
    Last Post: 03-03-2008, 03:09 AM
  4. chord for TUJHE DEKHA TO YE JANA SANAM
    By paragbal in forum Hindi Guitar Tabs - Submit or Request
    Replies: 1
    Last Post: 09-19-2007, 09:46 AM
  5. DDLJ-Tujhe Dekha to yeh jaana [Tabs] - Submission and query
    By rsumit in forum Hindi Guitar Tabs - Submit or Request
    Replies: 10
    Last Post: 08-22-2007, 01:56 PM

Bookmarks

Posting Permissions

  • You may not post new threads
  • You may not post replies
  • You may not post attachments
  • You may not edit your posts
  •  
Single Sign On provided by vBSSO