Follow Us On Follow us on Facebook Follow us on Twitter Watch us on YouTube
Register
Page 1 of 3 123 LastLast
Results 1 to 15 of 37
  1. #1
    kumar_barua is offline Newbie
    Join Date
    Oct 2005
    Posts
    27

    Thumbs up Jannat - Zara si accurate chords

    Hello guys....

    M posting the accurate chords of the song zara si from the upcoming movie jannat... the song is quite cool and nice..hope u guys like my work..

    The chords and plucking i m posting is of the Power Ballad version of the same song... actually i liked it more coz it has some more guitaring part in..
    those who haven't heard this one may check it out in the album itself...

    So here goes the song


    .......[Bm]....................[A]......................[G]....................[Bm]
    E-|---------------|-------------------|-----------------|-----------------
    B-|----3---2---3-|------3----2---3--|------3---2---3-|------3---2---3-
    G-|---------------|-------------------|-----------------|-----------------
    D-|--4---4---4---|----2---2----2----|----4---4---4---|----4---4---4---
    A-|-2-------------|--0---------------|---4-------------|--2-------------
    E-|---------------|-------------------|-----------------|----------------

    Repeat this 4 times



    Now comes the song



    [Bm]...................[G]
    zara si dil main de jaga tuu..
    [A]....................[G]
    zara se apna le bana ..


    [Bm].........................[G]
    zara sa khuwabon main saja tu..
    [A].......................[G]
    zara sa yadoon main basa..


    ...................[G]......[A]..............[Bm]
    main chahoon tujh ko meri jaan be panah..
    ............[G]......[A]...............[Bm]
    fida hon tujh pe meri jaan be panah..


    .............[D]............[A]
    woohhoo hooo oo oo oooooo
    [G]..................[A]
    ooo oo ooooooo oo oo ooooo

    .............[D]............[A]
    woohhoo hooo oo oo oooooo
    [G]..................[A]
    ooo ooo ooooo oo ooo oooooo


    para-2 for the original song for balad mix the above pattern continues


    [D]............................................[A]
    main tere , main tere qadmoon main rakh doon yeh jahan ..
    .......[G]..................[A]
    mera ishq deewangi ..oooooooooo

    [D]...........................[A]
    hai nhi , hai nhi , ashiq koi mujh sa tera..
    .......[G]..................[A]
    tu hi meri bandagi.. ..oooooooooo


    ...................[G]......[A]..............[Bm]
    main chahoon tujh ko meri jaan be panah..
    ............[G]......[A]...............[Bm]
    fida hon tujh pe meri jaan be panah..


    .............[D]............[A]
    woohhoo hooo oo oo oooooo
    [G]..................[A]
    ooo oo ooooooo oo oo ooooo

    .............[D]............[A]
    woohhoo hooo oo oo oooooo
    [G]..................[A]
    ooo ooo ooooo oo ooo oooooo


    Para-3


    [D].....................................[A]
    keh bhi de ,keh bhi de dil main tere jo hai chupa...
    .....[G].....................[A]
    khuwahish hai jo teri ..oooooooooo


    [D]..........................[A]
    ruk nhi, ruk nhi parda koi mujh se aja ..
    .....[G].....................[A]
    karle tu mera yakeen..oooooooooo

    ...................[G]......[A]..............[Bm]
    main chahoon tujh ko meri jaan be panah..
    ............[G]......[A]...............[Bm]
    fida hon tujh pe meri jaan be panah..


    .............[D]............[A]
    woohhoo hooo oo oo oooooo
    [G]..................[A]
    ooo oo ooooooo oo oo ooooo

    .............[D]............[A]
    woohhoo hooo oo oo oooooo
    [G]..................[A]
    ooo ooo ooooo oo ooo oooooo


    This is it...

    Hope u guys like my work...
    And comments are always welcome and appreciable...

  2. #2
    beckh is offline Newbie
    Join Date
    Jan 2008
    Posts
    2
    great work man....dude cud u give me the pattern also....

  3. #3
    kumar_barua is offline Newbie
    Join Date
    Oct 2005
    Posts
    27
    The strumming is quite simple just listen to the drum beats for it..

  4. #4
    DRBILLA's Avatar
    DRBILLA is offline Guitarist
    Join Date
    Apr 2005
    Location
    HYDERABAD
    Posts
    136
    can you give me the link to download this song.

  5. #5
    amitrichardxess is offline Guitarist
    Join Date
    Feb 2008
    Location
    Indore
    Posts
    155
    thanks man u did a vry nice job

  6. #6
    rockymac2000 is offline Newbie
    Join Date
    Jan 2007
    Posts
    10
    Nice!! but i tink i have heard this song somewhere else in english!!!!! ...
    but hindi's always better

  7. #7
    god of guitar85's Avatar
    god of guitar85 is offline GUITARPLAYER
    Join Date
    Nov 2005
    Location
    MUMBAI
    Posts
    553
    good work dude!!!
    just two corrections needed in da chords progression

    [Bm]...................[G]
    zara si dil main de jaga tuu..
    [A]....................[Bm]
    zara se apna le bana ..

    .............[D]............[A]
    woohhoo hooo oo oo oooooo
    [Bm]..................[G]
    ooo oo ooooooo oo oo ooooo

    now these chords are perfect!!!!!!!!
    god of guitar 85 (My cover versions) -

    http://www.soundclick.com/bands/pagemusic.cfm?bandID=532902

  8. #8
    metalsriks is offline Newbie
    Join Date
    Aug 2006
    Posts
    6
    nice one....but the starting part is quite different...
    E-|--------------|------------------|-------------------|-----------------|
    B-|--------------|------------------|-------------------|-----------------|
    G-|----7--6--7--|------7---6---7---|------7---6---7----|----7---6---7--|
    D-|--4--4--4--4-|----5---5---5---5-|---5---5---5---5--|---4---4---4--4|
    A-|-2-----------|-------------------|--------------------|--2--------------|
    E-|--------------|--0----------------|-3----------------|-----------------|

  9. #9
    tushain is offline Newbie
    Join Date
    May 2008
    Posts
    1

    Smile im a beginner... plz xplain me how to play these notations

    im a beginner... plz xplain me how to play these notations


    .......[Bm]....................[A]......................[G]....................[Bm]
    E-|---------------|-------------------|-----------------|-----------------
    B-|----3---2---3-|------3----2---3--|------3---2---3-|------3---2---3-
    G-|---------------|-------------------|-----------------|-----------------
    D-|--4---4---4---|----2---2----2----|----4---4---4---|----4---4---4---
    A-|-2-------------|--0---------------|---4-------------|--2-------------
    E-|---------------|-------------------|-----------------|----------------

    i wl b grateful 2 the person...
    plz telll...........

  10. #10
    amangulati is offline Newbie
    Join Date
    Dec 2007
    Posts
    9
    very good..good work u did....

    but in second line

    A Bm
    zara sa apna le bana

  11. #11
    xykic is offline Newbie
    Join Date
    May 2008
    Posts
    4

    This Is The Original Chord>> The Best Chord You"ll Ever See

    E||---------------------------|-------------------------|
    B||---------3-----2-----3-----|--------3-----2-----3----|
    G||*-----4--------------------|-----4-------------------|
    D||*--------------------------|-------------------------|
    A||---2--------2-----2-----2--|-------------------------|
    E||---------------------------|--0--------0-----0-------|



    --------------------------|--------------------------||
    --------3-----2-----3-----|--------3-----2-----3-----||
    -----4--------------------|-----4-------------------*||
    --------------------------|-------------------------*||
    --------------------------|--2--------2-----2--------||
    --3--------3-----3-----3--|--------------------------||

    This is the 1st Intro.

    then when the song starts goes

    Bm - Em - (G-A ) Bm

    then

    Em - A - G, Em - G - Bm

    then

    G - A repeat 7 times

    goes like this

    Bm Em
    E||-------|------|------|-------||---2----------------|--3----------------|
    B||-------|------|------|-------||---3----------------|--5----------------|
    G||*------|------|------|------*||*--4----------------|--0----------------|
    D||*------|------|------|------*||*--4----------------|--2----------------|
    A||-------|------|------|-------||---2----------------|--2----------------|
    E||-------|------|------|-------||--------------------|--0----------------|


    G A Bm Em A
    --3--------0--------|--7-----------------||--0--------5--------|
    --3--------2--------|--7-----------------||--0--------5--------|
    --4--------2--------|--4----------------*||--0--------6--------|
    --5--------2--------|--4----------------*||--2--------7--------|
    --5--------0--------|--5-----------------||--2--------7--------|
    --3-----------------|--7-----------------||--0--------5--------|


    G Em A Bm
    --3----------------|--0--------5--------|--2----------------|
    --3----------------|--0--------5--------|--3----------------|
    --4----------------|--0--------6--------|--4----------------|
    --5----------------|--2--------7--------|--4----------------|
    --5----------------|--2--------7--------|--2----------------|
    --3----------------|--0--------5--------|-------------------|


    G A 7x
    |---3--------5---------||
    |---3--------5---------||
    |*--4--------6--------*||
    |*--5--------7--------*||
    |---5--------7---------||
    |---3--------5---------||


    even the guitarist who played song will be like WHAT DA hahaha

  12. #12
    kumar_barua is offline Newbie
    Join Date
    Oct 2005
    Posts
    27

    Smile Listen before u coment

    Quote Originally Posted by xykic
    E||---------------------------|-------------------------|
    B||---------3-----2-----3-----|--------3-----2-----3----|
    G||*-----4--------------------|-----4-------------------|
    D||*--------------------------|-------------------------|
    A||---2--------2-----2-----2--|-------------------------|
    E||---------------------------|--0--------0-----0-------|



    --------------------------|--------------------------||
    --------3-----2-----3-----|--------3-----2-----3-----||
    -----4--------------------|-----4-------------------*||
    --------------------------|-------------------------*||
    --------------------------|--2--------2-----2--------||
    --3--------3-----3-----3--|--------------------------||

    This is the 1st Intro.

    then when the song starts goes

    Bm - Em - (G-A ) Bm

    then

    Em - A - G, Em - G - Bm

    then

    G - A repeat 7 times

    goes like this

    Bm Em
    E||-------|------|------|-------||---2----------------|--3----------------|
    B||-------|------|------|-------||---3----------------|--5----------------|
    G||*------|------|------|------*||*--4----------------|--0----------------|
    D||*------|------|------|------*||*--4----------------|--2----------------|
    A||-------|------|------|-------||---2----------------|--2----------------|
    E||-------|------|------|-------||--------------------|--0----------------|


    G A Bm Em A
    --3--------0--------|--7-----------------||--0--------5--------|
    --3--------2--------|--7-----------------||--0--------5--------|
    --4--------2--------|--4----------------*||--0--------6--------|
    --5--------2--------|--4----------------*||--2--------7--------|
    --5--------0--------|--5-----------------||--2--------7--------|
    --3-----------------|--7-----------------||--0--------5--------|


    G Em A Bm
    --3----------------|--0--------5--------|--2----------------|
    --3----------------|--0--------5--------|--3----------------|
    --4----------------|--0--------6--------|--4----------------|
    --5----------------|--2--------7--------|--4----------------|
    --5----------------|--2--------7--------|--2----------------|
    --3----------------|--0--------5--------|-------------------|


    G A 7x
    |---3--------5---------||
    |---3--------5---------||
    |*--4--------6--------*||
    |*--5--------7--------*||
    |---5--------7---------||
    |---3--------5---------||


    even the guitarist who played song will be like WHAT DA hahaha


    Dude u need to listen the song again before commenting..
    The initial progression is not at all matching with the original scale....so do check out again....

  13. #13
    jamal is offline Newbie
    Join Date
    May 2008
    Posts
    2
    thanksss alottt

  14. #14
    Shashank007's Avatar
    Shashank007 is offline Extremist
    Join Date
    Mar 2005
    Posts
    147
    Well done...keep it up.....i wonder how Imran hav good songs in all his movies
    ~~~~~~~~~~~~~~~~~~~~~~~~~~~~~~~~
    <<<<Smoking reduces the sperm count...Quit it>>>>

    ▌Яeđefining_ŧhe_Đefined ▌

    http://www.soundclick.com/bands/default.cfm?bandID=831536

  15. #15
    xykic is offline Newbie
    Join Date
    May 2008
    Posts
    4

    Re: listen before u comment

    Dude u need to listen the song again before commenting..
    The initial progression is not at all matching with the original scale....so do check out again....


    hahaha i aint ur dude bro.. n listen u funny man.. you'd appreciate my tab posting here, once u learn how to play guita and get a good hearing.
    anyways am off.. i know what i posted and how it sounds .. and if u need i got the karaoke version as well.. so later

 

 
Page 1 of 3 123 LastLast

Similar Threads

  1. Zara Sa-jannat
    By fishtank in forum Hindi Guitar Tabs - Submit or Request
    Replies: 2
    Last Post: 01-29-2012, 01:09 PM
  2. Sub: Zara Sa- Jannat
    By koolg in forum Hindi Guitar Tabs - Submit or Request
    Replies: 1
    Last Post: 01-29-2012, 01:03 PM
  3. Sub - Zara Sa - Jannat
    By koolg in forum Hindi Guitar Tabs - Submit or Request
    Replies: 4
    Last Post: 11-03-2009, 12:49 PM
  4. Need chords of Zara Sa - Jannat
    By darkness in forum Hindi Guitar Tabs - Submit or Request
    Replies: 4
    Last Post: 06-29-2009, 11:55 AM
  5. Zara Sa(CHORDS) from the movie JANNAT
    By harsheel2k in forum Hindi Guitar Tabs - Submit or Request
    Replies: 1
    Last Post: 07-13-2008, 04:05 PM

Bookmarks

Posting Permissions

  • You may not post new threads
  • You may not post replies
  • You may not post attachments
  • You may not edit your posts
  •  
Single Sign On provided by vBSSO