Hi fellas...

here is the tab for one heart touching song...
"Jab koi baat bigad jaye" by kishore kumar

Its simple..... and serene..
I hope you will like it...

B--5-5-5-5--------7s9--------------
E----------------------------------
Jab koi ....... baat....

B---9-7-5---------7-s9-------------
E----------------------------------
bigad............jayeee....

B---7-7----5-5----7-9-------------
E----------------------------------
kabhi koi...... mushkil.....

B---7--5---5s2---------------------
E----------------------------------
pad jaye....................


B---2-5---5s7--9-7-5-5-5s2---------
E----------------------------------
Tum dena saath mera.....

B---0-2-5-----2h5------------------
E----------------------------------
O hum nava.....

B--5-5---5--------7s9--------------
E----------------------------------
NA... koi.......... hain......

B---9-7-5---------9----------------
E----------------------------------
Na.. koi ............tha......

B---7-7-5-7------------------------
E----------------------------------
Zindagi main .......

B---9-7-5-5-5s2-----------------------
E----------------------------------
Tumhare sivaa .......


B---2-5---5s7--9-7-5-5-5s2---------
E----------------------------------
Tum dena saath mera.....

B---0-2-5-----2h5------------------
E----------------------------------
O hum nava.....