Follow Us On Follow us on Facebook Follow us on Twitter Watch us on YouTube
Register
Results 1 to 15 of 15
  1. #1
    jitesh2025 is offline Newbie
    Join Date
    Mar 2005
    Posts
    21

    Intro+Tab for Hai Apana Dil Toa Aawara (old)

    These are the tabs for the song hai apna dil toa awara the tabs
    are pretty simple I guess.

    This song is one of my all time favorites songs it has got
    a very nice melody and tempo.

    Got up this morning and started tabbing this song and came up with this. Any positive negative comments or suggestions are welcomed.


    Intro


    e---------------------------------------------------------------
    B---------------------------------------------------------------
    G---------------------------------------------------------------
    D-----0--2--0--2--0--2-----2---0---------------------------
    A-3-------------------------------------3----------------------
    E----------------------------------------------3h5--3---------


    e---------------------------------------------------------------
    B---------------------------------------------------------------
    G---------------------------------------------------------------
    D--------0-------0-------0---3--2--0------------------------
    A-2-3-------3-------3--------------------3-------------------
    E---------------------------------------------------------------



    e----------------------------------------------------------------
    B----------------------------------------------------------------
    G----------------------------------------------------------------
    D-------------0--2--------0--0---------------------------------
    A-----3--3------------3-----------3--2--0---------------------
    E-3--------------------------------------------------------------

    Hai apna dil toa aawara


    e----------------------------------------------------------------
    B----------------------------------------------------------------
    G----------------------------------------------------------------
    D--------------------------0--2---------0----------------------
    A-2-------0--2--3--3-------------3---------2---3------------
    E-----3----------------------------------------------------------

    Na jane kis pe ayega


    (Same Intro Music)

    e---------------------------------------------------------------
    B---------------------------------------------------------------
    G---------------------------------------------------------------
    D-----0--2--0--2--0--2-----2---0---------------------------
    A-3-------------------------------------3----------------------
    E----------------------------------------------3h5--3---------


    e---------------------------------------------------------------
    B---------------------------------------------------------------
    G---------------------------------------------------------------
    D--------0-------0-------0---3--2--0------------------------
    A-2-3-------3-------3--------------------3-------------------
    E---------------------------------------------------------------


    e---------------------------------------------------------------
    B---------------------------------------------------------------
    G---------------------------------------------------------------
    D-2-2-2-2-2-2-0-2------------------------------------------
    A---------------------------------------------------------------
    E---------------------------------------------------------------

    Haseano ne bulaya

    e---------------------------------------------------------------
    B---------------------------------------------------------------
    G---------------------------------------------------------------
    D-2-2-2-2-2-2-0-2------------------------------------------
    A---------------------------------------------------------------
    E---------------------------------------------------------------

    Gale se bhi lagaya

    e---------------------------------------------------------------
    B---------------------------------------------------------------
    G---------------------------2--0-------------------------------
    D-3-3-3-3-3-3--2--3-------------3--3---2--2--------------
    A---------------------------------------------------------------
    E---------------------------------------------------------------

    Bauhat samjaya yeh he naa samjha

    e----------------------------------------------------------------
    B----------------------------------------------------------------
    G----------------------------------------------------------------
    D-------------0--2--------0--0---------------------------------
    A-----3--3------------3-----------3--2--0---------------------
    E-3--------------------------------------------------------------

    Bauhat bhola tha bechara


    e----------------------------------------------------------------
    B----------------------------------------------------------------
    G----------------------------------------------------------------
    D--------------------------0--2---------0----------------------
    A-2-------0--2--3--3-------------3---------2---3------------
    E-----3----------------------------------------------------------

    Na jane kis pe ayegaa


    (Same Intro Music)

    e---------------------------------------------------------------
    B---------------------------------------------------------------
    G---------------------------------------------------------------
    D-----0--2--0--2--0--2-----2---0---------------------------
    A-3-------------------------------------3----------------------
    E----------------------------------------------3h5--3---------


    e---------------------------------------------------------------
    B---------------------------------------------------------------
    G---------------------------------------------------------------
    D--------0-------0-------0---3--2--0------------------------
    A-2-3-------3-------3--------------------3-------------------
    E---------------------------------------------------------------

    Enjoy the song

    bye

    jitesh

  2. #2
    sisu's Avatar
    sisu is offline Newbie
    Join Date
    May 2005
    Posts
    38

    cool...will be thankful if u can provide with the chords

    hey ur post was reallly cool....i wud be really thankful...i mean its just great song..so please try gettin the chords...ok
    newaz ...nice post...
    1 LiFe ..... lIVe iT

  3. #3
    jitesh2025 is offline Newbie
    Join Date
    Mar 2005
    Posts
    21
    thanks sisu for ur appreciation. I will definitely try to find the chord for this song till then

    bye

  4. #4
    jitesh2025 is offline Newbie
    Join Date
    Mar 2005
    Posts
    21
    Found the chords from a web site. Try it and tell me if they r correct.

    Song-Hai apna dil
    Scale-G
    Chords By-Prabodh Bharti


    G-----------------------C--------------D--------------G
    Hai Apna Dil To Awara Na Jaane Kispae Ayaega

    G-----------------------C--------------D---------------G
    Hai Apna Dil To Awara Na Jaane Kispae Ayaega

    G--------------------C-------------------------------D--------------
    NaNaNaNaNaNa NaNaNa NaNaNa NaNaNa NaNaNaNaNa
    -----------G
    NaNaNa Na

    G-----------------------------------------C-------------------D
    Haseeno Ne Bulyaya Gale Se Bhi Lagaya Bahout Samjhaya

    ---------------G
    Yehi Na Samjhha


    Rest satanzas follow same chords (Accompaniment)

  5. #5
    jitesh2025 is offline Newbie
    Join Date
    Mar 2005
    Posts
    21
    Found the chords from a web site. Try it and tell me if they r correct.

    Song-Hai apna dil
    Scale-G
    Chords By-Prabodh Bharti


    G-----------------------C--------------D--------G
    Hai Apna Dil To Awara Na Jaane Kispae Ayaega

    G-----------------------C--------------D--------G
    Hai Apna Dil To Awara Na Jaane Kispae Ayaega

    G-----------------C----------------------------D
    NaNaNaNaNaNa NaNaNa NaNaNa NaNaNa NaNaNaNaNa
    -----------G
    NaNaNa Na

    G-----------------------------------------C-------------------D
    Haseeno Ne Bulyaya Gale Se Bhi Lagaya Bahout Samjhaya

    ---------------G
    Yehi Na Samjhha


    Rest satanzas follow same chords (Accompaniment)

  6. #6
    bob-bobby's Avatar
    bob-bobby is offline Extinct or Banned!
    Join Date
    Mar 2004
    Location
    lagos, nigeria, west africa
    Posts
    976
    nice try jitesh , i would try the tabs and chords tonite ...

    nice song !!!

    Moderator - IGT .
    ( Still a Sweetheart ) ...

  7. #7
    Join Date
    Apr 2005
    Location
    Shawshank...............
    Posts
    372
    really good tabs buddy.........................
    ROCK ON!

  8. #8
    jitesh2025 is offline Newbie
    Join Date
    Mar 2005
    Posts
    21
    Thanks for the appreciation both of u. Rock On

  9. #9
    amit82cse's Avatar
    amit82cse is offline Silent observeR
    Join Date
    May 2005
    Location
    Redmond, WA
    Posts
    1,424
    Good work!

  10. #10
    jitesh2025 is offline Newbie
    Join Date
    Mar 2005
    Posts
    21
    Thanks amit.

  11. #11
    .:VinAY:.'s Avatar
    .:VinAY:. is offline Tabber
    Join Date
    Mar 2005
    Location
    Mumbai
    Posts
    256
    jhakaas!

  12. #12
    akkyy21's Avatar
    akkyy21 is offline #%@!$&
    Join Date
    Jan 2005
    Location
    Pune
    Posts
    814
    Goood tabs,... uv picked up a nice song!! reps for u!!
    !!~~ एक्की रोक कारता है ~~!!

    ██████रो█████क██और███रो███ल███████
    ........(....\.................../....)
    .........\....\................ /..../
    ..........\....\.............../..../
    ...........\..../.|.`\./.../
    .........../... |....|.... ( `\
    ..........|.....|.|.|\....\
    ..........\......` .. ......
    ...........\_ ............ _.
    ██████रो█████क██और███रो███ल███████

    !!~~ भारत माता की जय ~~!!

  13. #13
    vini is offline Repeat Offender
    Join Date
    Feb 2005
    Location
    Secret Garden
    Posts
    3,038
    how about the following for the Haseano ne bulaya+gale se bhi lagay part...this sounds more closer (to me atleast)>>

    Code:
    D-2-2-2-2-2-2-1-2------------------------------------------
    just a minor change..a 1 instead of 0

    nice work..reps comin ur way
    .. Rock got no reason
    Rock got no rhyme ..

  14. #14
    Hardik's Avatar
    Hardik is offline .:.:.:BoRn TaLenT:.:.:.
    Join Date
    Jan 2005
    Location
    Pune
    Posts
    643
    nice tabs jitesh2025.....reps 4 you.......
    dunno abuot the chords though....dont go with your tab's scale....i havent heard the song recently, but from your tabs i feel these should be the chords...

    -----C-------------Dm----------G---------------C-Dm-C-
    Hai Apna Dil To Awara Na Jaane Kispae Ayaega



    -------C-------------G-------------------------------Dm--------------
    NaNaNaNaNaNa NaNaNa NaNaNa NaNaNa NaNaNaNaNa
    -----------C
    NaNaNa Na

    C-----------------------------------------------------Dm-------
    Haseeno Ne Bulyaya Gale Se Bhi Lagaya Bahout Samjhaya

    ---G-----------C
    Yehi Na Samjhha


    i am not sure though...will check n tell you..........keep up da nice work....
    TaKe LiFe As It CoMes....

  15. #15
    .:VinAY:.'s Avatar
    .:VinAY:. is offline Tabber
    Join Date
    Mar 2005
    Location
    Mumbai
    Posts
    256
    naah har***...jitesh's sound better to me..dunno abt the others tho

 

 

Similar Threads

  1. intro
    By rubin in forum Introduce Yourself
    Replies: 1
    Last Post: 03-31-2008, 02:16 AM
  2. Intro
    By predator in forum Bengali Guitar Tabs - Submit or Request
    Replies: 2
    Last Post: 03-27-2007, 11:37 PM
  3. Hai Apana Dil
    By nits_apte in forum Hindi Guitar Tabs - Submit or Request
    Replies: 1
    Last Post: 03-09-2007, 08:35 PM
  4. Tabs :: Recording : Aawara Man Deewana Pan
    By amit82cse in forum Hindi Guitar Tabs - Submit or Request
    Replies: 7
    Last Post: 06-16-2005, 05:28 PM
  5. lp in the end intro
    By chacha 420 in forum English Guitar Tabs - Submit or Request
    Replies: 5
    Last Post: 04-19-2005, 11:21 AM

Bookmarks

Posting Permissions

  • You may not post new threads
  • You may not post replies
  • You may not post attachments
  • You may not edit your posts
  •  
Single Sign On provided by vBSSO