Follow Us On Follow us on Facebook Follow us on Twitter Watch us on YouTube
Register
Results 1 to 2 of 2
  1. #1
    alirana's Avatar
    alirana is offline Old Time Guitarist
    Join Date
    Aug 2003
    Location
    Lahore, Pakistan
    Posts
    69

    Talking Humay Tumsay Pyar Kitna

    hey dudes Happy New Year
    n temme hows this one?
    Adios
    Attached Files Attached Files
    R A N A

  2. #2
    preezer369 is offline Guitarist
    Join Date
    Oct 2003
    Posts
    157
    here r one tabbed by umarboy...i think these sound better

    Song = Hamein tum se pyar kitna
    tabed by umar



    E -0-1-3-3-5-5---5-5--------------------
    B --------------------------------------
    G --------------------------------------
    D --------------------------------------
    A --------------------------------------
    E --------------------------------------
    Hamein tum se Pyar kitna


    E -7-8-7-5-3-2-3------------------------
    B --------------------------------------
    G --------------------------------------
    D --------------------------------------
    A --------------------------------------
    E --------------------------------------
    Yea hum nahin jaaante


    E -7-7-5-0-3-0------3-3-0---------------
    B ------------3----3-5------------------
    G --------------------------------------
    D --------------------------------------
    A --------------------------------------
    E --------------------------------------
    Mager je nahin sukte tumhare bina

 

 

Similar Threads

  1. Dil Ko Tumsay Pyar Hua-Rhtdm
    By alirana in forum Hindi Guitar Tabs - Submit or Request
    Replies: 18
    Last Post: 07-24-2011, 12:37 AM
  2. Kitna pyara hai ye pyar : Josh
    By VisOrchestraGrp in forum Hindi Guitar Tabs - Submit or Request
    Replies: 0
    Last Post: 11-24-2007, 11:57 AM
  3. Asking for Kitna Pyar Karte Hain song tab
    By amrendra kumar in forum Hindi Guitar Tabs - Submit or Request
    Replies: 1
    Last Post: 06-14-2006, 11:51 PM
  4. REQ: Humein tum se pyar kitna
    By Silent Scream in forum Hindi Guitar Tabs - Submit or Request
    Replies: 1
    Last Post: 01-03-2005, 11:43 PM
  5. Hamein tum se pyar kitna
    By umarboy in forum Hindi Guitar Tabs - Submit or Request
    Replies: 0
    Last Post: 09-13-2003, 11:39 PM

Bookmarks

Posting Permissions

  • You may not post new threads
  • You may not post replies
  • You may not post attachments
  • You may not edit your posts
  •  
Single Sign On provided by vBSSO